999
The file was created in CADSoftTools software
999

  0
SECTION
  2
HEADER
  9
$ACADVER
  1
AC1015
  9
$DWGCODEPAGE
  3
ANSI_1252
  9
$CLAYER
  8
0
  9
$CELTYPE
  6
BYLAYER
  9
$CELTSCALE
 40
1
  9
$CELWEIGHT
370
-1
  9
$DIMALT
 70
0
  9
$DIMALTF
 40
1
  9
$DIMPOST
  1

  9
$DIMAPOST
  1

  9
$DIMSCALE
 40
1
  9
$DIMASZ
 40
0.18
  9
$DIMCLRD
 70
0
  9
$DIMCLRE
 70
0
  9
$DIMCLRT
 70
0
  9
$DIMEXE
 40
0.18
  9
$DIMEXO
 40
0.0625
  9
$DIMGAP
 40
0.0625
  9
$DIMLFAC
 40
1
  9
$DIMDEC
 70
4
  9
$DIMTAD
 70
0
  9
$DIMCEN
 40
0.09
  9
$DIMTIH
 70
1
  9
$DIMTIX
 70
0
  9
$DIMTOH
 70
1
  9
$DIMSE1
 70
0
  9
$DIMSE2
 70
0
  9
$DIMSD1
 70
0
  9
$DIMSD2
 70
0
  9
$DIMLWD
 70
-1
  9
$DIMLWE
 70
-1
  9
$DIMSAH
 70
0
  9
$DIMBLK
  1

  9
$DIMBLK1
  1

  9
$DIMBLK2
  1

  9
$DIMLDRBLK
  1

  9
$DIMSTYLE
  2
STANDARD
  9
$DIMTP
 40
0
  9
$DIMTM
 40
0
  9
$DIMTXT
 40
0.18
  9
$DIMLUNIT
 70
2
  9
$DIMDSEP
 70
46
  9
$DIMTXSTY
  7
STANDARD
  9
$TEXTSIZE
 40
0.18
  9
$TEXTSTYLE
  7
STANDARD
  9
$HANDSEED
  5
00000000000000E6
  9
$FILLETRAD
 40
0.5
  9
$INSUNITS
 70
4
  9
$LIMMIN
 10
-45
 20
-22.5
  9
$LIMMAX
 10
35
 20
32.5
  9
$FILLMODE
 70
1
  9
$LTSCALE
 40
1
  9
$MEASUREMENT
 70
0
  9
$ATTMODE
 70
1
  9
$PDMODE
 70
0
  9
$PDSIZE
 40
0
  9
$TILEMODE
 70
1
  9
$UCSORG
 10
0
 20
0
 30
0
  9
$UCSXDIR
 10
1
 20
0
 30
0
  9
$UCSYDIR
 10
0
 20
1
 30
0
  9
$INSBASE
 10
0
 20
0
 30
0
  9
$XCLIPFRAME
290
1
  9
$DIMASSOC
280
2
  9
$TDCREATE
 40
2460490.49395429
  9
$TDINDWG
 40
3.58796296296296E-7
  9
$TDUPDATE
 40
2460490.49395465
  0
ENDSEC
  0
SECTION
  2
CLASSES
  0
CLASS
  1
IMAGE
  2
AcDbRasterImage
  3
ISM
 90
2175
280
0
281
1
  0
CLASS
  1
IMAGEDEF
  2
AcDbRasterImageDef
  3
ISM
 90
0
280
0
281
0
  0
CLASS
  1
WIPEOUT
  2
AcDbWipeout
  3
"WipeOut"
 90
2175
280
0
281
1
  0
CLASS
  1
WIPEOUTVARIABLES
  2
AcDbWipeoutVariables
  3
"WipeOut"
 90
0
280
0
281
0
  0
CLASS
  1
MPOLYGON
  2
AcDbMPolygon
  3
"AcMPolygonObj15"
 90
3071
280
0
281
1
  0
ENDSEC
  0
SECTION
  2
TABLES
  0
TABLE
  2
APPID
  5
64
100
AcDbSymbolTable
  0
APPID
  5
65
100
AcDbSymbolTableRecord
100
AcDbRegAppTableRecord
  2
ACAD
 70
0
  0
APPID
  5
12
100
AcDbSymbolTableRecord
100
AcDbRegAppTableRecord
  2
CSTINVENTORY
 70
0
  0
APPID
  5
66
100
AcDbSymbolTableRecord
100
AcDbRegAppTableRecord
  2
AcDbAttr
 70
0
  0
APPID
  5
67
100
AcDbSymbolTableRecord
100
AcDbRegAppTableRecord
  2
PE_URL
 70
0
  0
ENDTAB
  0
TABLE
  2
BLOCK_RECORD
  5
68
100
AcDbSymbolTable
  0
BLOCK_RECORD
  5
63
100
AcDbSymbolTableRecord
100
AcDbBlockTableRecord
  2
*MODEL_SPACE
  0
BLOCK_RECORD
  5
69
100
AcDbSymbolTableRecord
100
AcDbBlockTableRecord
  2
*PAPER_SPACE
  0
BLOCK_RECORD
  5
10
100
AcDbSymbolTableRecord
100
AcDbBlockTableRecord
  2
_CLOSEDFILLED
  0
ENDTAB
  0
TABLE
  2
STYLE
  5
3
100
AcDbSymbolTable
  0
STYLE
  5
A
100
AcDbSymbolTableRecord
100
AcDbTextStyleTableRecord
  2
STANDARD
 70
0
 40
0
 41
1
 50
0
 71
0
 42
2.5
  3
txt
  4

  0
STYLE
  5
2E
100
AcDbSymbolTableRecord
100
AcDbTextStyleTableRecord
  2
HS_Text1
 70
0
 40
0
 41
1
 50
0
 71
0
 42
2.5
  3
arial.ttf
  4

1001
ACAD
1000
Arial
1071
0
  0
STYLE
  5
2F
100
AcDbSymbolTableRecord
100
AcDbTextStyleTableRecord
  2
HS_Text1__BD
 70
0
 40
0
 41
1
 50
0
 71
0
 42
2.5
  3
arialbd.ttf
  4

1001
ACAD
1000
Arial
1071
33554432
  0
STYLE
  5
30
100
AcDbSymbolTableRecord
100
AcDbTextStyleTableRecord
  2
HS_Text1__IT
 70
0
 40
0
 41
1
 50
0
 71
0
 42
2.5
  3
arialbi.ttf
  4

1001
ACAD
1000
Arial
1071
16777216
  0
STYLE
  5
31
100
AcDbSymbolTableRecord
100
AcDbTextStyleTableRecord
  2
HS_Text1__BI
 70
0
 40
0
 41
1
 50
0
 71
0
 42
2.5
  3
arialbi.ttf
  4

1001
ACAD
1000
Arial
1071
50331648
  0
STYLE
  5
32
100
AcDbSymbolTableRecord
100
AcDbTextStyleTableRecord
  2
TextStyle_Attribute
 70
0
 40
0
 41
1
 50
0
 71
0
 42
2.5
  3
arial.ttf
  4

1001
ACAD
1000
Arial
1071
0
  0
STYLE
  5
33
100
AcDbSymbolTableRecord
100
AcDbTextStyleTableRecord
  2
TextStyle_Attribute__BD
 70
0
 40
0
 41
1
 50
0
 71
0
 42
2.5
  3
arialbd.ttf
  4

1001
ACAD
1000
Arial
1071
33554432
  0
STYLE
  5
34
100
AcDbSymbolTableRecord
100
AcDbTextStyleTableRecord
  2
TextStyle_Attribute__IT
 70
0
 40
0
 41
1
 50
0
 71
0
 42
2.5
  3
arialbi.ttf
  4

1001
ACAD
1000
Arial
1071
16777216
  0
STYLE
  5
35
100
AcDbSymbolTableRecord
100
AcDbTextStyleTableRecord
  2
TextStyle_Attribute__BI
 70
0
 40
0
 41
1
 50
0
 71
0
 42
2.5
  3
arialbi.ttf
  4

1001
ACAD
1000
Arial
1071
50331648
  0
STYLE
  5
36
100
AcDbSymbolTableRecord
100
AcDbTextStyleTableRecord
  2
TextStyle_BOM
 70
0
 40
0
 41
1
 50
0
 71
0
 42
2.5
  3
ARIALN.TTF
  4

1001
ACAD
1000
Arial Narrow
1071
0
  0
STYLE
  5
37
100
AcDbSymbolTableRecord
100
AcDbTextStyleTableRecord
  2
TextStyle_BOM__BD
 70
0
 40
0
 41
1
 50
0
 71
0
 42
2.5
  3
ARIALNB.TTF
  4

1001
ACAD
1000
Arial Narrow
1071
33554432
  0
STYLE
  5
38
100
AcDbSymbolTableRecord
100
AcDbTextStyleTableRecord
  2
TextStyle_BOM__IT
 70
0
 40
0
 41
1
 50
0
 71
0
 42
2.5
  3
ARIALNBI.TTF
  4

1001
ACAD
1000
Arial Narrow
1071
16777216
  0
STYLE
  5
39
100
AcDbSymbolTableRecord
100
AcDbTextStyleTableRecord
  2
TextStyle_BOM__BI
 70
0
 40
0
 41
1
 50
0
 71
0
 42
2.5
  3
ARIALNBI.TTF
  4

1001
ACAD
1000
Arial Narrow
1071
50331648
  0
STYLE
  5
3A
100
AcDbSymbolTableRecord
100
AcDbTextStyleTableRecord
  2
TextStyle_ConnectionLineFlow
 70
0
 40
0
 41
1
 50
0
 71
0
 42
2.5
  3
arial.ttf
  4

1001
ACAD
1000
Arial
1071
0
  0
STYLE
  5
3B
100
AcDbSymbolTableRecord
100
AcDbTextStyleTableRecord
  2
TextStyle_ConnectionLineFlow__BD
 70
0
 40
0
 41
1
 50
0
 71
0
 42
2.5
  3
arialbd.ttf
  4

1001
ACAD
1000
Arial
1071
33554432
  0
STYLE
  5
3C
100
AcDbSymbolTableRecord
100
AcDbTextStyleTableRecord
  2
TextStyle_ConnectionLineFlow__IT
 70
0
 40
0
 41
1
 50
0
 71
0
 42
2.5
  3
arialbi.ttf
  4

1001
ACAD
1000
Arial
1071
16777216
  0
STYLE
  5
3D
100
AcDbSymbolTableRecord
100
AcDbTextStyleTableRecord
  2
TextStyle_ConnectionLineFlow__BI
 70
0
 40
0
 41
1
 50
0
 71
0
 42
2.5
  3
arialbi.ttf
  4

1001
ACAD
1000
Arial
1071
50331648
  0
STYLE
  5
3E
100
AcDbSymbolTableRecord
100
AcDbTextStyleTableRecord
  2
TextStyle_ConnectionLineSize
 70
0
 40
0
 41
1
 50
0
 71
0
 42
2.5
  3
arial.ttf
  4

1001
ACAD
1000
Arial
1071
0
  0
STYLE
  5
3F
100
AcDbSymbolTableRecord
100
AcDbTextStyleTableRecord
  2
TextStyle_ConnectionLineSize__BD
 70
0
 40
0
 41
1
 50
0
 71
0
 42
2.5
  3
arialbd.ttf
  4

1001
ACAD
1000
Arial
1071
33554432
  0
STYLE
  5
40
100
AcDbSymbolTableRecord
100
AcDbTextStyleTableRecord
  2
TextStyle_ConnectionLineSize__IT
 70
0
 40
0
 41
1
 50
0
 71
0
 42
2.5
  3
arialbi.ttf
  4

1001
ACAD
1000
Arial
1071
16777216
  0
STYLE
  5
41
100
AcDbSymbolTableRecord
100
AcDbTextStyleTableRecord
  2
TextStyle_ConnectionLineSize__BI
 70
0
 40
0
 41
1
 50
0
 71
0
 42
2.5
  3
arialbi.ttf
  4

1001
ACAD
1000
Arial
1071
50331648
  0
STYLE
  5
42
100
AcDbSymbolTableRecord
100
AcDbTextStyleTableRecord
  2
TextStyle_ConnectionLineVelocity
 70
0
 40
0
 41
1
 50
0
 71
0
 42
2.5
  3
arial.ttf
  4

1001
ACAD
1000
Arial
1071
0
  0
STYLE
  5
43
100
AcDbSymbolTableRecord
100
AcDbTextStyleTableRecord
  2
TextStyle_ConnectionLineVelocity__BD
 70
0
 40
0
 41
1
 50
0
 71
0
 42
2.5
  3
arialbd.ttf
  4

1001
ACAD
1000
Arial
1071
33554432
  0
STYLE
  5
44
100
AcDbSymbolTableRecord
100
AcDbTextStyleTableRecord
  2
TextStyle_ConnectionLineVelocity__IT
 70
0
 40
0
 41
1
 50
0
 71
0
 42
2.5
  3
arialbi.ttf
  4

1001
ACAD
1000
Arial
1071
16777216
  0
STYLE
  5
45
100
AcDbSymbolTableRecord
100
AcDbTextStyleTableRecord
  2
TextStyle_ConnectionLineVelocity__BI
 70
0
 40
0
 41
1
 50
0
 71
0
 42
2.5
  3
arialbi.ttf
  4

1001
ACAD
1000
Arial
1071
50331648
  0
STYLE
  5
46
100
AcDbSymbolTableRecord
100
AcDbTextStyleTableRecord
  2
TextStyle_HoseType
 70
0
 40
0
 41
1
 50
0
 71
0
 42
2.5
  3
arial.ttf
  4

1001
ACAD
1000
Arial
1071
0
  0
STYLE
  5
47
100
AcDbSymbolTableRecord
100
AcDbTextStyleTableRecord
  2
TextStyle_HoseType__BD
 70
0
 40
0
 41
1
 50
0
 71
0
 42
2.5
  3
arialbd.ttf
  4

1001
ACAD
1000
Arial
1071
33554432
  0
STYLE
  5
48
100
AcDbSymbolTableRecord
100
AcDbTextStyleTableRecord
  2
TextStyle_HoseType__IT
 70
0
 40
0
 41
1
 50
0
 71
0
 42
2.5
  3
arialbi.ttf
  4

1001
ACAD
1000
Arial
1071
16777216
  0
STYLE
  5
49
100
AcDbSymbolTableRecord
100
AcDbTextStyleTableRecord
  2
TextStyle_HoseType__BI
 70
0
 40
0
 41
1
 50
0
 71
0
 42
2.5
  3
arialbi.ttf
  4

1001
ACAD
1000
Arial
1071
50331648
  0
STYLE
  5
4A
100
AcDbSymbolTableRecord
100
AcDbTextStyleTableRecord
  2
TextStyle_IPort
 70
0
 40
0
 41
1
 50
0
 71
0
 42
2.5
  3
arial.ttf
  4

1001
ACAD
1000
Arial
1071
0
  0
STYLE
  5
4B
100
AcDbSymbolTableRecord
100
AcDbTextStyleTableRecord
  2
TextStyle_IPort__BD
 70
0
 40
0
 41
1
 50
0
 71
0
 42
2.5
  3
arialbd.ttf
  4

1001
ACAD
1000
Arial
1071
33554432
  0
STYLE
  5
4C
100
AcDbSymbolTableRecord
100
AcDbTextStyleTableRecord
  2
TextStyle_IPort__IT
 70
0
 40
0
 41
1
 50
0
 71
0
 42
2.5
  3
arialbi.ttf
  4

1001
ACAD
1000
Arial
1071
16777216
  0
STYLE
  5
4D
100
AcDbSymbolTableRecord
100
AcDbTextStyleTableRecord
  2
TextStyle_IPort__BI
 70
0
 40
0
 41
1
 50
0
 71
0
 42
2.5
  3
arialbi.ttf
  4

1001
ACAD
1000
Arial
1071
50331648
  0
STYLE
  5
4E
100
AcDbSymbolTableRecord
100
AcDbTextStyleTableRecord
  2
TextStyle_ItemNumber
 70
0
 40
0
 41
1
 50
0
 71
0
 42
2.5
  3
arial.ttf
  4

1001
ACAD
1000
Arial
1071
0
  0
STYLE
  5
4F
100
AcDbSymbolTableRecord
100
AcDbTextStyleTableRecord
  2
TextStyle_ItemNumber__BD
 70
0
 40
0
 41
1
 50
0
 71
0
 42
2.5
  3
arialbd.ttf
  4

1001
ACAD
1000
Arial
1071
33554432
  0
STYLE
  5
50
100
AcDbSymbolTableRecord
100
AcDbTextStyleTableRecord
  2
TextStyle_ItemNumber__IT
 70
0
 40
0
 41
1
 50
0
 71
0
 42
2.5
  3
arialbi.ttf
  4

1001
ACAD
1000
Arial
1071
16777216
  0
STYLE
  5
51
100
AcDbSymbolTableRecord
100
AcDbTextStyleTableRecord
  2
TextStyle_ItemNumber__BI
 70
0
 40
0
 41
1
 50
0
 71
0
 42
2.5
  3
arialbi.ttf
  4

1001
ACAD
1000
Arial
1071
50331648
  0
STYLE
  5
52
100
AcDbSymbolTableRecord
100
AcDbTextStyleTableRecord
  2
TextStyle_Port
 70
0
 40
0
 41
1
 50
0
 71
0
 42
2.5
  3
arial.ttf
  4

1001
ACAD
1000
Arial
1071
0
  0
STYLE
  5
53
100
AcDbSymbolTableRecord
100
AcDbTextStyleTableRecord
  2
TextStyle_Port__BD
 70
0
 40
0
 41
1
 50
0
 71
0
 42
2.5
  3
arialbd.ttf
  4

1001
ACAD
1000
Arial
1071
33554432
  0
STYLE
  5
54
100
AcDbSymbolTableRecord
100
AcDbTextStyleTableRecord
  2
TextStyle_Port__IT
 70
0
 40
0
 41
1
 50
0
 71
0
 42
2.5
  3
arialbi.ttf
  4

1001
ACAD
1000
Arial
1071
16777216
  0
STYLE
  5
55
100
AcDbSymbolTableRecord
100
AcDbTextStyleTableRecord
  2
TextStyle_Port__BI
 70
0
 40
0
 41
1
 50
0
 71
0
 42
2.5
  3
arialbi.ttf
  4

1001
ACAD
1000
Arial
1071
50331648
  0
STYLE
  5
56
100
AcDbSymbolTableRecord
100
AcDbTextStyleTableRecord
  2
TextStyle_Revisions
 70
0
 40
0
 41
1
 50
0
 71
0
 42
2.5
  3
arial.ttf
  4

1001
ACAD
1000
Arial
1071
0
  0
STYLE
  5
57
100
AcDbSymbolTableRecord
100
AcDbTextStyleTableRecord
  2
TextStyle_Revisions__BD
 70
0
 40
0
 41
1
 50
0
 71
0
 42
2.5
  3
arialbd.ttf
  4

1001
ACAD
1000
Arial
1071
33554432
  0
STYLE
  5
58
100
AcDbSymbolTableRecord
100
AcDbTextStyleTableRecord
  2
TextStyle_Revisions__IT
 70
0
 40
0
 41
1
 50
0
 71
0
 42
2.5
  3
arialbi.ttf
  4

1001
ACAD
1000
Arial
1071
16777216
  0
STYLE
  5
59
100
AcDbSymbolTableRecord
100
AcDbTextStyleTableRecord
  2
TextStyle_Revisions__BI
 70
0
 40
0
 41
1
 50
0
 71
0
 42
2.5
  3
arialbi.ttf
  4

1001
ACAD
1000
Arial
1071
50331648
  0
STYLE
  5
5A
100
AcDbSymbolTableRecord
100
AcDbTextStyleTableRecord
  2
TextStyle_RevTriangle
 70
0
 40
0
 41
1
 50
0
 71
0
 42
2.5
  3
arial.ttf
  4

1001
ACAD
1000
Arial
1071
0
  0
STYLE
  5
5B
100
AcDbSymbolTableRecord
100
AcDbTextStyleTableRecord
  2
TextStyle_RevTriangle__BD
 70
0
 40
0
 41
1
 50
0
 71
0
 42
2.5
  3
arialbd.ttf
  4

1001
ACAD
1000
Arial
1071
33554432
  0
STYLE
  5
5C
100
AcDbSymbolTableRecord
100
AcDbTextStyleTableRecord
  2
TextStyle_RevTriangle__IT
 70
0
 40
0
 41
1
 50
0
 71
0
 42
2.5
  3
arialbi.ttf
  4

1001
ACAD
1000
Arial
1071
16777216
  0
STYLE
  5
5D
100
AcDbSymbolTableRecord
100
AcDbTextStyleTableRecord
  2
TextStyle_RevTriangle__BI
 70
0
 40
0
 41
1
 50
0
 71
0
 42
2.5
  3
arialbi.ttf
  4

1001
ACAD
1000
Arial
1071
50331648
  0
STYLE
  5
5E
100
AcDbSymbolTableRecord
100
AcDbTextStyleTableRecord
  2
TextStyle_Text
 70
0
 40
0
 41
1
 50
0
 71
0
 42
2.5
  3
arial.ttf
  4

1001
ACAD
1000
Arial
1071
0
  0
STYLE
  5
5F
100
AcDbSymbolTableRecord
100
AcDbTextStyleTableRecord
  2
TextStyle_Text__BD
 70
0
 40
0
 41
1
 50
0
 71
0
 42
2.5
  3
arialbd.ttf
  4

1001
ACAD
1000
Arial
1071
33554432
  0
STYLE
  5
60
100
AcDbSymbolTableRecord
100
AcDbTextStyleTableRecord
  2
TextStyle_Text__IT
 70
0
 40
0
 41
1
 50
0
 71
0
 42
2.5
  3
arialbi.ttf
  4

1001
ACAD
1000
Arial
1071
16777216
  0
STYLE
  5
61
100
AcDbSymbolTableRecord
100
AcDbTextStyleTableRecord
  2
TextStyle_Text__BI
 70
0
 40
0
 41
1
 50
0
 71
0
 42
2.5
  3
arialbi.ttf
  4

1001
ACAD
1000
Arial
1071
50331648
  0
ENDTAB
  0
TABLE
  2
LTYPE
  5
1
100
AcDbSymbolTable
  0
LTYPE
  5
9
100
AcDbSymbolTableRecord
100
AcDbLinetypeTableRecord
  2
CONTINUOUS
 70
0
  3

 72
65
 73
0
 40
0
  0
LTYPE
  5
7
100
AcDbSymbolTableRecord
100
AcDbLinetypeTableRecord
  2
BYLAYER
 70
0
  3

 72
65
 73
0
 40
0
  0
LTYPE
  5
8
100
AcDbSymbolTableRecord
100
AcDbLinetypeTableRecord
  2
BYBLOCK
 70
0
  3

 72
65
 73
0
 40
0
  0
LTYPE
  5
14
100
AcDbSymbolTableRecord
100
AcDbLinetypeTableRecord
  2
HS_Default
 70
0
  3

 72
65
 73
0
 40
0
  0
LTYPE
  5
15
100
AcDbSymbolTableRecord
100
AcDbLinetypeTableRecord
  2
HS_Solid
 70
0
  3

 72
65
 73
0
 40
0
  0
LTYPE
  5
16
100
AcDbSymbolTableRecord
100
AcDbLinetypeTableRecord
  2
HS_Hidden
 70
0
  3
_ 
 72
65
 73
2
 40
2.3
 49
1.5
 74
0
 49
-0.8
 74
0
  0
LTYPE
  5
17
100
AcDbSymbolTableRecord
100
AcDbLinetypeTableRecord
  2
HS_Dashed
 70
0
  3
_ 
 72
65
 73
2
 40
3.3
 49
2.5
 74
0
 49
-0.8
 74
0
  0
LTYPE
  5
18
100
AcDbSymbolTableRecord
100
AcDbLinetypeTableRecord
  2
HS_Border
 70
0
  3
_ _ 
 72
65
 73
4
 40
10
 49
6.5
 74
0
 49
-1
 74
0
 49
1.5
 74
0
 49
-1
 74
0
  0
ENDTAB
  0
TABLE
  2
LAYER
  5
2
100
AcDbSymbolTable
  0
LAYER
  5
E
100
AcDbSymbolTableRecord
100
AcDbLayerTableRecord
  2
0
 70
0
 62
7
  6
CONTINUOUS
290
1
370
-3
390
0
  0
LAYER
  5
19
100
AcDbSymbolTableRecord
100
AcDbLayerTableRecord
  2
HS_Symbol
 70
0
 62
7
  6
HS_Solid
290
1
370
35
390
0
  0
LAYER
  5
1A
100
AcDbSymbolTableRecord
100
AcDbLayerTableRecord
  2
HS_Solenoid
 70
0
 62
7
  6
HS_Solid
290
1
370
35
390
0
  0
LAYER
  5
1B
100
AcDbSymbolTableRecord
100
AcDbLayerTableRecord
  2
HS_Orifice
 70
0
 62
7
  6
HS_Solid
290
1
370
35
390
0
  0
LAYER
  5
1C
100
AcDbSymbolTableRecord
100
AcDbLayerTableRecord
  2
HS_Line
 70
0
 62
7
  6
HS_Solid
290
1
370
18
390
0
  0
LAYER
  5
1D
100
AcDbSymbolTableRecord
100
AcDbLayerTableRecord
  2
HS_Pilot
 70
0
 62
7
  6
HS_Dashed
290
1
370
18
390
0
  0
LAYER
  5
1E
100
AcDbSymbolTableRecord
100
AcDbLayerTableRecord
  2
HS_Drain
 70
0
 62
7
  6
HS_Hidden
290
1
370
18
390
0
  0
LAYER
  5
1F
100
AcDbSymbolTableRecord
100
AcDbLayerTableRecord
  2
HS_Border
 70
0
 62
7
  6
HS_Border
290
1
370
25
390
0
  0
LAYER
  5
20
100
AcDbSymbolTableRecord
100
AcDbLayerTableRecord
  2
HS_IBorder
 70
0
 62
7
  6
HS_Border
290
1
370
35
390
0
  0
LAYER
  5
21
100
AcDbSymbolTableRecord
100
AcDbLayerTableRecord
  2
HS_Text
 70
0
 62
7
  6
HS_Solid
290
1
390
0
  0
LAYER
  5
22
100
AcDbSymbolTableRecord
100
AcDbLayerTableRecord
  2
HS_Attribute
 70
0
 62
7
  6
HS_Solid
290
1
390
0
  0
LAYER
  5
23
100
AcDbSymbolTableRecord
100
AcDbLayerTableRecord
  2
HS_ItemNumber
 70
0
 62
7
  6
HS_Solid
290
1
390
0
  0
LAYER
  5
24
100
AcDbSymbolTableRecord
100
AcDbLayerTableRecord
  2
HS_Leader
 70
0
 62
7
  6
HS_Solid
290
1
390
0
  0
LAYER
  5
25
100
AcDbSymbolTableRecord
100
AcDbLayerTableRecord
  2
HS_Port
 70
0
 62
7
  6
HS_Solid
290
1
370
35
390
0
  0
LAYER
  5
26
100
AcDbSymbolTableRecord
100
AcDbLayerTableRecord
  2
HS_Connection_Line
 70
0
 62
7
  6
HS_Solid
290
1
370
35
390
0
  0
LAYER
  5
27
100
AcDbSymbolTableRecord
100
AcDbLayerTableRecord
  2
HS_Hose
 70
0
 62
7
  6
HS_Solid
290
1
370
35
390
0
  0
LAYER
  5
28
100
AcDbSymbolTableRecord
100
AcDbLayerTableRecord
  2
HS_Electric
 70
0
 62
7
  6
HS_Solid
290
1
370
35
390
0
  0
LAYER
  5
29
100
AcDbSymbolTableRecord
100
AcDbLayerTableRecord
  2
Pressure
 70
0
 62
30
  6
HS_Solid
290
1
370
20
390
0
  0
LAYER
  5
2A
100
AcDbSymbolTableRecord
100
AcDbLayerTableRecord
  2
Reservoir
 70
0
 62
140
  6
HS_Solid
290
1
370
20
390
0
  0
LAYER
  5
2B
100
AcDbSymbolTableRecord
100
AcDbLayerTableRecord
  2
Control
 70
0
 62
30
  6
HS_Dashed
290
1
370
20
390
0
  0
LAYER
  5
2C
100
AcDbSymbolTableRecord
100
AcDbLayerTableRecord
  2
Drain
 70
0
 62
140
  6
HS_Hidden
290
1
370
20
390
0
  0
LAYER
  5
2D
100
AcDbSymbolTableRecord
100
AcDbLayerTableRecord
  2
Working
 70
0
 62
70
  6
HS_Solid
290
1
370
20
390
0
  0
ENDTAB
  0
TABLE
  2
VPORT
  5
6A
100
AcDbSymbolTable
  0
VPORT
  5
6C
100
AcDbSymbolTableRecord
100
AcDbViewportTableRecord
  2
*ACTIVE
 70
0
 10
0
 20
0
 11
1
 21
1
 12
-5
 22
5
 32
0
 13
0
 23
0
 14
1
 24
1
 15
1
 25
1
 16
0
 26
0
 36
1
 17
0
 27
0
 37
0
 40
44
 41
1.45454545454545
 42
50
 43
0
 44
0
 50
0
 51
0
 71
0
 72
100
 73
1
 74
1
 75
0
 76
0
 77
0
 78
0
  0
ENDTAB
  0
TABLE
  2
VIEW
  5
6D
100
AcDbSymbolTable
  0
ENDTAB
  0
TABLE
  2
UCS
  5
6E
100
AcDbSymbolTable
  0
ENDTAB
  0
TABLE
  2
DIMSTYLE
  5
4
100
AcDbSymbolTable
 70
1
100
AcDbDimStyleTable
 71
0
  0
DIMSTYLE
105
B
100
AcDbSymbolTableRecord
100
AcDbDimStyleTableRecord
  2
STANDARD
 70
0
  3

 40
1
 41
0.18
 42
0.0625
 44
0.18
 47
0
 48
0
 73
1
 74
1
 75
0
 76
0
 77
0
140
0.18
141
0.09
144
1
147
0.0625
173
0
174
0
176
0
177
0
178
0
277
2
278
46
281
0
282
0
271
4
340
A
371
-1
372
-1
  0
ENDTAB
  0
ENDSEC
  0
SECTION
  2
BLOCKS
  0
BLOCK
  5
6F
100
AcDbEntity
  8
0
100
AcDbBlockBegin
  2
*MODEL_SPACE
 70
0
 10
0
 20
0
  0
ENDBLK
  5
70
100
AcDbEntity
  8
0
100
AcDbBlockEnd
  0
BLOCK
  5
71
100
AcDbEntity
  8
0
100
AcDbBlockBegin
  2
*PAPER_SPACE
 70
0
 10
0
 20
0
  0
ENDBLK
  5
72
100
AcDbEntity
  8
0
100
AcDbBlockEnd
  0
BLOCK
  5
F
100
AcDbEntity
  8
0
100
AcDbBlockBegin
  2
_CLOSEDFILLED
 70
0
 10
0
 20
0
 30
0
  3
_CLOSEDFILLED
  1

  0
SOLID
  5
C
100
AcDbEntity
  8
0
100
AcDbTrace
370
-2
 62
0
 10
-1
 20
0.166666666666667
 30
0
 11
0
 21
0
 31
0
 12
-1
 22
0.166666666666667
 32
0
 13
-1
 23
-0.166666666666667
 33
0
  0
LINE
  5
D
100
AcDbEntity
  8
0
100
AcDbLine
370
-2
 62
0
 10
-1
 20
0
 30
0
 11
-2
 21
0
 31
0
  0
ENDBLK
  5
73
100
AcDbEntity
  8
0
100
AcDbBlockEnd
  0
ENDSEC
  0
SECTION
  2
ENTITIES
  0
CIRCLE
  5
74
100
AcDbEntity
  8
HS_Symbol
100
AcDbCircle
370
-1
 10
-5.08578640671828
 20
19
 30
0
 40
1
  0
LINE
  5
75
100
AcDbEntity
  8
HS_Symbol
100
AcDbLine
370
-1
 10
-4.08578640671828
 20
19
 30
0
 11
-3.5
 21
19
 31
0
  0
LWPOLYLINE
  5
76
100
AcDbEntity
  8
HS_Symbol
100
AcDbPolyline
370
-1
 38
0
 90
3
 70
0
 10
-4.5
 20
21
 10
-6.5
 20
19
 10
-4.5
 20
17
  0
LINE
  5
77
100
AcDbEntity
  8
HS_Symbol
100
AcDbLine
370
-1
 10
-3.5
 20
19
 30
0
 11
2.5
 21
19
 31
0
  0
LINE
  5
78
100
AcDbEntity
  8
HS_Symbol
100
AcDbLine
370
-1
 10
2.5
 20
19
 30
0
 11
1
 21
17.5
 31
0
  0
LINE
  5
79
100
AcDbEntity
  8
HS_Symbol
100
AcDbLine
370
-1
 10
2.5
 20
19
 30
0
 11
1
 21
20.5
 31
0
  0
CIRCLE
  5
7A
100
AcDbEntity
  8
HS_Symbol
100
AcDbCircle
370
-1
  6
HS_Solid
 10
-2
 20
19
 30
0
 40
0.375
  0
LWPOLYLINE
  5
7B
100
AcDbEntity
  8
HS_Symbol
100
AcDbPolyline
  6
HS_Solid
 38
0
 90
14
 70
0
 10
-2.24803918541231
 20
19.28125
 10
-1.75196081458769
 20
19.28125
 10
-2.32475952641916
 20
19.1875
 10
-1.67524047358084
 20
19.1875
 10
-2.36309218870695
 20
19.09375
 10
-1.63690781129305
 20
19.09375
 10
-2.375
 20
19
 10
-1.625
 20
19
 10
-2.36309218870695
 20
18.90625
 10
-1.63690781129305
 20
18.90625
 10
-2.32475952641916
 20
18.8125
 10
-1.67524047358084
 20
18.8125
 10
-2.24803918541231
 20
18.71875
 10
-1.75196081458769
 20
18.71875
  0
LINE
  5
7C
100
AcDbEntity
  8
HS_Symbol
100
AcDbLine
370
-1
 10
-2
 20
16.8
 30
0
 11
-2
 21
19
 31
0
  0
LWPOLYLINE
  5
7D
100
AcDbEntity
  8
HS_Symbol
100
AcDbPolyline
370
-1
 38
0
 90
4
 70
1
 10
-25
 20
2
 10
-31
 20
2
 10
-31
 20
-4
 10
-25
 20
-4
  0
LINE
  5
7E
100
AcDbEntity
  8
HS_Symbol
100
AcDbLine
370
-1
 10
-28
 20
2
 30
0
 11
-28.0000001967013
 21
-2.5
 31
0
  0
SOLID
  5
7F
100
AcDbEntity
  8
HS_Symbol
100
AcDbTrace
370
-1
  6
HS_Solid
 10
-27.5980764080546
 20
-2.50000001756864
 30
0
 11
-28.4019239853479
 21
-2.49999998243135
 31
0
 12
-28.0000002622683
 22
-3.99999999999999
 32
0
 13
-28.0000002622683
 23
-3.99999999999999
 33
0
  0
LWPOLYLINE
  5
80
100
AcDbEntity
  8
HS_Symbol
100
AcDbPolyline
370
-1
 38
0
 90
8
 70
0
 10
-25
 20
-1
 10
-24.6833333333333
 20
0.5
 10
-24.05
 20
-2.5
 10
-23.4166666666667
 20
0.5
 10
-22.7833333333333
 20
-2.5
 10
-22.15
 20
0.5
 10
-21.5166666666667
 20
-2.5
 10
-21.2
 20
-1
  0
LWPOLYLINE
  5
81
100
AcDbEntity
  8
HS_Symbol
100
AcDbPolyline
370
-1
 38
0
 90
4
 70
1
 10
1
 20
2
 10
-5
 20
2
 10
-5
 20
-4
 10
1
 20
-4
  0
LINE
  5
82
100
AcDbEntity
  8
HS_Symbol
100
AcDbLine
370
-1
 10
1
 20
-1
 30
0
 11
-3.5
 21
-1
 31
0
  0
SOLID
  5
83
100
AcDbEntity
  8
HS_Symbol
100
AcDbTrace
370
-1
  6
HS_Solid
 10
-3.5
 20
-1.40192378864668
 30
0
 11
-3.5
 21
-0.598076211353315
 31
0
 12
-5
 22
-0.999999999999999
 32
0
 13
-5
 23
-0.999999999999999
 33
0
  0
LWPOLYLINE
  5
84
100
AcDbEntity
  8
HS_Symbol
100
AcDbPolyline
370
-1
 38
0
 90
8
 70
0
 10
-2
 20
2
 10
-0.5
 20
2.31666666666667
 10
-3.5
 20
2.95
 10
-0.5
 20
3.58333333333333
 10
-3.5
 20
4.21666666666667
 10
-0.5
 20
4.85
 10
-3.5
 20
5.48333333333333
 10
-2
 20
5.8
  0
LINE
  5
85
100
AcDbEntity
  8
HS_Symbol
100
AcDbLine
370
-1
 10
-4.7
 20
3.3
 30
0
 11
0.53623528950015
 21
4.47229148272391
 31
0
  0
SOLID
  5
86
100
AcDbEntity
  8
HS_Symbol
100
AcDbTrace
370
-1
  6
HS_Solid
 10
0.448426056943222
 20
4.86450605481153
 30
0
 11
0.624044522057078
 21
4.0800769106363
 31
0
 12
2
 22
4.8
 32
0
 13
2
 23
4.8
 33
0
  0
LINE
  5
87
100
AcDbEntity
  8
HS_Orifice
100
AcDbLine
370
-1
 10
-14.5
 20
-1
 30
0
 11
-11.5
 21
-1
 31
0
  0
CIRCLE
  5
88
100
AcDbEntity
  8
HS_Orifice
100
AcDbCircle
370
-1
 10
-13
 20
-1
 30
0
 40
1.5
  0
ARC
  5
89
100
AcDbEntity
  8
HS_Orifice
100
AcDbCircle
370
-1
 10
-13
 20
0.725
 30
0
 40
1.125
100
AcDbArc
 50
228.189685104221
 51
311.810314895779
  0
ARC
  5
8A
100
AcDbEntity
  8
HS_Orifice
100
AcDbCircle
370
-1
 10
-13
 20
-2.725
 30
0
 40
1.125
100
AcDbArc
 50
48.1896851042214
 51
131.810314895779
  0
LINE
  5
8B
100
AcDbEntity
  8
HS_Orifice
100
AcDbLine
370
-1
 10
13.5
 20
-10
 30
0
 11
16.5
 21
-10
 31
0
  0
CIRCLE
  5
8C
100
AcDbEntity
  8
HS_Orifice
100
AcDbCircle
370
-1
 10
15
 20
-10
 30
0
 40
1.5
  0
ARC
  5
8D
100
AcDbEntity
  8
HS_Orifice
100
AcDbCircle
370
-1
 10
15
 20
-8.275
 30
0
 40
1.125
100
AcDbArc
 50
228.189685104221
 51
311.810314895779
  0
ARC
  5
8E
100
AcDbEntity
  8
HS_Orifice
100
AcDbCircle
370
-1
 10
15
 20
-11.725
 30
0
 40
1.125
100
AcDbArc
 50
48.1896851042214
 51
131.810314895779
  0
LINE
  5
8F
100
AcDbEntity
  8
HS_Connection_Line
100
AcDbLine
370
-1
 10
-33
 20
27
 30
0
 11
-33
 21
19
 31
0
  0
LINE
  5
90
100
AcDbEntity
  8
HS_Connection_Line
100
AcDbLine
370
-1
 10
-33
 20
19
 30
0
 11
-28
 21
19
 31
0
  0
LINE
  5
91
100
AcDbEntity
  8
HS_Connection_Line
100
AcDbLine
370
-1
 10
-28
 20
19
 30
0
 11
-28
 21
9
 31
0
  0
LINE
  5
92
100
AcDbEntity
  8
HS_Connection_Line
100
AcDbLine
370
-1
 10
23
 20
-17
 30
0
 11
23
 21
-10
 31
0
  0
CIRCLE
  5
93
100
AcDbEntity
  8
HS_Connection_Line
100
AcDbCircle
370
-1
  6
HS_Solid
 10
23
 20
-10
 30
0
 40
0.8
  0
LWPOLYLINE
  5
94
100
AcDbEntity
  8
HS_Connection_Line
100
AcDbPolyline
  6
HS_Solid
 38
0
 90
34
 70
0
 10
22.6335017221673
 20
-9.28888888888889
 10
23.3664982778327
 20
-9.28888888888889
 10
22.4971685111562
 20
-9.37777777777778
 10
23.5028314888438
 20
-9.37777777777778
 10
22.4037152060001
 20
-9.46666666666667
 10
23.5962847939999
 20
-9.46666666666667
 10
22.3348164645735
 20
-9.55555555555556
 10
23.6651835354265
 20
-9.55555555555556
 10
22.2833548668179
 20
-9.64444444444445
 10
23.7166451331821
 20
-9.64444444444445
 10
22.2457527667344
 20
-9.73333333333333
 10
23.7542472332657
 20
-9.73333333333333
 10
22.2200031655651
 20
-9.82222222222222
 10
23.7799968344349
 20
-9.82222222222222
 10
22.2049536080001
 20
-9.91111111111111
 10
23.7950463919999
 20
-9.91111111111111
 10
22.2
 20
-10
 10
23.8
 20
-10
 10
22.2049536080001
 20
-10.0888888888889
 10
23.7950463919999
 20
-10.0888888888889
 10
22.2200031655651
 20
-10.1777777777778
 10
23.7799968344349
 20
-10.1777777777778
 10
22.2457527667344
 20
-10.2666666666667
 10
23.7542472332657
 20
-10.2666666666667
 10
22.2833548668179
 20
-10.3555555555556
 10
23.7166451331821
 20
-10.3555555555556
 10
22.3348164645735
 20
-10.4444444444444
 10
23.6651835354265
 20
-10.4444444444444
 10
22.4037152060001
 20
-10.5333333333333
 10
23.5962847939999
 20
-10.5333333333333
 10
22.4971685111562
 20
-10.6222222222222
 10
23.5028314888438
 20
-10.6222222222222
 10
22.6335017221673
 20
-10.7111111111111
 10
23.3664982778327
 20
-10.7111111111111
  0
ARC
  5
95
100
AcDbEntity
  8
HS_Connection_Line
100
AcDbCircle
370
-1
 10
23
 20
14
 30
0
 40
1
100
AcDbArc
 50
270
 51
90
  0
LINE
  5
96
100
AcDbEntity
  8
HS_Connection_Line
100
AcDbLine
370
-1
 10
23
 20
-10
 30
0
 11
22.999998994638
 21
13
 31
0
  0
ARC
  5
97
100
AcDbEntity
  8
HS_Connection_Line
100
AcDbCircle
370
-1
 10
23
 20
14
 30
0
 40
1
100
AcDbArc
 50
270
 51
90
  0
LINE
  5
98
100
AcDbEntity
  8
HS_Connection_Line
100
AcDbLine
370
-1
 10
22.9999994754633
 20
15
 30
0
 11
23
 21
27
 31
0
  0
LINE
  5
99
100
AcDbEntity
  8
HS_Connection_Line
100
AcDbLine
370
-1
  6
HS_Hidden
 10
16.5
 20
-10
 30
0
 11
23
 21
-10
 31
0
  0
LINE
  5
9A
100
AcDbEntity
  8
HS_Connection_Line
100
AcDbLine
370
-1
  6
HS_Dashed
 10
-11.5
 20
-1
 30
0
 11
-9
 21
-1
 31
0
  0
LINE
  5
9B
100
AcDbEntity
  8
HS_Connection_Line
100
AcDbLine
370
-1
  6
HS_Hidden
 10
-14.5
 20
-1
 30
0
 11
-25
 21
-1
 31
0
  0
LINE
  5
9C
100
AcDbEntity
  8
HS_Connection_Line
100
AcDbLine
370
-1
 10
-28
 20
-4
 30
0
 11
-28
 21
-10
 31
0
  0
LINE
  5
9D
100
AcDbEntity
  8
HS_Connection_Line
100
AcDbLine
370
-1
 10
-28
 20
-10
 30
0
 11
-33
 21
-10
 31
0
  0
LINE
  5
9E
100
AcDbEntity
  8
HS_Connection_Line
100
AcDbLine
370
-1
 10
-17
 20
27
 30
0
 11
-17
 21
19
 31
0
  0
CIRCLE
  5
9F
100
AcDbEntity
  8
HS_Connection_Line
100
AcDbCircle
370
-1
  6
HS_Solid
 10
-17
 20
19
 30
0
 40
0.8
  0
LWPOLYLINE
  5
A0
100
AcDbEntity
  8
HS_Connection_Line
100
AcDbPolyline
  6
HS_Solid
 38
0
 90
34
 70
0
 10
-17.3664982778327
 20
19.7111111111111
 10
-16.6335017221673
 20
19.7111111111111
 10
-17.5028314888438
 20
19.6222222222222
 10
-16.4971685111562
 20
19.6222222222222
 10
-17.5962847939999
 20
19.5333333333333
 10
-16.4037152060001
 20
19.5333333333333
 10
-17.6651835354265
 20
19.4444444444444
 10
-16.3348164645735
 20
19.4444444444444
 10
-17.7166451331821
 20
19.3555555555556
 10
-16.2833548668179
 20
19.3555555555556
 10
-17.7542472332657
 20
19.2666666666667
 10
-16.2457527667344
 20
19.2666666666667
 10
-17.7799968344349
 20
19.1777777777778
 10
-16.2200031655651
 20
19.1777777777778
 10
-17.7950463919999
 20
19.0888888888889
 10
-16.2049536080001
 20
19.0888888888889
 10
-17.8
 20
19
 10
-16.2
 20
19
 10
-17.7950463919999
 20
18.9111111111111
 10
-16.2049536080001
 20
18.9111111111111
 10
-17.7799968344349
 20
18.8222222222222
 10
-16.2200031655651
 20
18.8222222222222
 10
-17.7542472332657
 20
18.7333333333333
 10
-16.2457527667344
 20
18.7333333333333
 10
-17.7166451331821
 20
18.6444444444444
 10
-16.2833548668179
 20
18.6444444444444
 10
-17.6651835354265
 20
18.5555555555556
 10
-16.3348164645735
 20
18.5555555555556
 10
-17.5962847939999
 20
18.4666666666667
 10
-16.4037152060001
 20
18.4666666666667
 10
-17.5028314888438
 20
18.3777777777778
 10
-16.4971685111562
 20
18.3777777777778
 10
-17.3664982778327
 20
18.2888888888889
 10
-16.6335017221673
 20
18.2888888888889
  0
ARC
  5
A1
100
AcDbEntity
  8
HS_Connection_Line
100
AcDbCircle
370
-1
 10
-17
 20
9
 30
0
 40
1
100
AcDbArc
 50
270
 51
90
  0
LINE
  5
A2
100
AcDbEntity
  8
HS_Connection_Line
100
AcDbLine
370
-1
 10
-17
 20
19
 30
0
 11
-17.0000003934025
 21
10
 31
0
  0
ARC
  5
A3
100
AcDbEntity
  8
HS_Connection_Line
100
AcDbCircle
370
-1
 10
-17
 20
9
 30
0
 40
1
100
AcDbArc
 50
270
 51
90
  0
ARC
  5
A4
100
AcDbEntity
  8
HS_Connection_Line
100
AcDbCircle
370
-1
 10
-17
 20
-1
 30
0
 40
1
100
AcDbArc
 50
270
 51
90
  0
LINE
  5
A5
100
AcDbEntity
  8
HS_Connection_Line
100
AcDbLine
370
-1
 10
-17.0000003934025
 20
7.99999999999999
 30
0
 11
-17.0000003934025
 21
8.59798343633145E-15
 31
0
  0
ARC
  5
A6
100
AcDbEntity
  8
HS_Connection_Line
100
AcDbCircle
370
-1
 10
-17
 20
-1
 30
0
 40
1
100
AcDbArc
 50
270
 51
90
  0
LINE
  5
A7
100
AcDbEntity
  8
HS_Connection_Line
100
AcDbLine
370
-1
 10
-17.0000006556709
 20
-2.00000000000001
 30
0
 11
-17
 21
-17
 31
0
  0
LINE
  5
A8
100
AcDbEntity
  8
HS_Connection_Line
100
AcDbLine
370
-1
  6
HS_Hidden
 10
-6.5
 20
19
 30
0
 11
-17
 21
19
 31
0
  0
LINE
  5
A9
100
AcDbEntity
  8
HS_Connection_Line
100
AcDbLine
370
-1
 10
-2
 20
16.8
 30
0
 11
-2
 21
14
 31
0
  0
LINE
  5
AA
100
AcDbEntity
  8
HS_Connection_Line
100
AcDbLine
370
-1
 10
7
 20
27
 30
0
 11
7
 21
19
 31
0
  0
CIRCLE
  5
AB
100
AcDbEntity
  8
HS_Connection_Line
100
AcDbCircle
370
-1
  6
HS_Solid
 10
-9
 20
-1
 30
0
 40
0.8
  0
LWPOLYLINE
  5
AC
100
AcDbEntity
  8
HS_Connection_Line
100
AcDbPolyline
  6
HS_Solid
 38
0
 90
34
 70
0
 10
-9.36649827783268
 20
-0.288888888888889
 10
-8.63350172216732
 20
-0.288888888888889
 10
-9.50283148884377
 20
-0.377777777777778
 10
-8.49716851115623
 20
-0.377777777777778
 10
-9.59628479399994
 20
-0.466666666666667
 10
-8.40371520600006
 20
-0.466666666666667
 10
-9.66518353542648
 20
-0.555555555555556
 10
-8.33481646457352
 20
-0.555555555555556
 10
-9.71664513318209
 20
-0.644444444444444
 10
-8.28335486681791
 20
-0.644444444444444
 10
-9.75424723326565
 20
-0.733333333333333
 10
-8.24575276673435
 20
-0.733333333333333
 10
-9.77999683443486
 20
-0.822222222222222
 10
-8.22000316556514
 20
-0.822222222222222
 10
-9.79504639199993
 20
-0.911111111111111
 10
-8.20495360800007
 20
-0.911111111111111
 10
-9.8
 20
-1
 10
-8.2
 20
-1
 10
-9.79504639199993
 20
-1.08888888888889
 10
-8.20495360800007
 20
-1.08888888888889
 10
-9.77999683443486
 20
-1.17777777777778
 10
-8.22000316556514
 20
-1.17777777777778
 10
-9.75424723326565
 20
-1.26666666666667
 10
-8.24575276673435
 20
-1.26666666666667
 10
-9.71664513318209
 20
-1.35555555555556
 10
-8.28335486681791
 20
-1.35555555555556
 10
-9.66518353542648
 20
-1.44444444444444
 10
-8.33481646457352
 20
-1.44444444444444
 10
-9.59628479399994
 20
-1.53333333333333
 10
-8.40371520600006
 20
-1.53333333333333
 10
-9.50283148884377
 20
-1.62222222222222
 10
-8.49716851115623
 20
-1.62222222222222
 10
-9.36649827783268
 20
-1.71111111111111
 10
-8.63350172216732
 20
-1.71111111111111
  0
LINE
  5
AD
100
AcDbEntity
  8
HS_Connection_Line
100
AcDbLine
370
-1
  6
HS_Dashed
 10
-9
 20
-1
 30
0
 11
-5
 21
-1
 31
0
  0
LINE
  5
AE
100
AcDbEntity
  8
HS_Connection_Line
100
AcDbLine
370
-1
  6
HS_Hidden
 10
-9
 20
-1
 30
0
 11
-9
 21
-10
 31
0
  0
LINE
  5
AF
100
AcDbEntity
  8
HS_Connection_Line
100
AcDbLine
370
-1
  6
HS_Hidden
 10
-9
 20
-10
 30
0
 11
13.5
 21
-10
 31
0
  0
CIRCLE
  5
B0
100
AcDbEntity
  8
HS_Connection_Line
100
AcDbCircle
370
-1
  6
HS_Solid
 10
-28
 20
9
 30
0
 40
0.8
  0
LWPOLYLINE
  5
B1
100
AcDbEntity
  8
HS_Connection_Line
100
AcDbPolyline
  6
HS_Solid
 38
0
 90
34
 70
0
 10
-28.3664982778327
 20
9.71111111111111
 10
-27.6335017221673
 20
9.71111111111111
 10
-28.5028314888438
 20
9.62222222222222
 10
-27.4971685111562
 20
9.62222222222222
 10
-28.5962847939999
 20
9.53333333333333
 10
-27.4037152060001
 20
9.53333333333333
 10
-28.6651835354265
 20
9.44444444444444
 10
-27.3348164645735
 20
9.44444444444444
 10
-28.7166451331821
 20
9.35555555555556
 10
-27.2833548668179
 20
9.35555555555556
 10
-28.7542472332657
 20
9.26666666666667
 10
-27.2457527667343
 20
9.26666666666667
 10
-28.7799968344349
 20
9.17777777777778
 10
-27.2200031655651
 20
9.17777777777778
 10
-28.7950463919999
 20
9.08888888888889
 10
-27.2049536080001
 20
9.08888888888889
 10
-28.8
 20
9
 10
-27.2
 20
9
 10
-28.7950463919999
 20
8.91111111111111
 10
-27.2049536080001
 20
8.91111111111111
 10
-28.7799968344349
 20
8.82222222222222
 10
-27.2200031655651
 20
8.82222222222222
 10
-28.7542472332657
 20
8.73333333333333
 10
-27.2457527667343
 20
8.73333333333333
 10
-28.7166451331821
 20
8.64444444444444
 10
-27.2833548668179
 20
8.64444444444444
 10
-28.6651835354265
 20
8.55555555555556
 10
-27.3348164645735
 20
8.55555555555556
 10
-28.5962847939999
 20
8.46666666666667
 10
-27.4037152060001
 20
8.46666666666667
 10
-28.5028314888438
 20
8.37777777777778
 10
-27.4971685111562
 20
8.37777777777778
 10
-28.3664982778327
 20
8.28888888888889
 10
-27.6335017221673
 20
8.28888888888889
  0
LINE
  5
B2
100
AcDbEntity
  8
HS_Connection_Line
100
AcDbLine
370
-1
 10
-28
 20
9
 30
0
 11
-28
 21
2
 31
0
  0
LINE
  5
B3
100
AcDbEntity
  8
HS_Connection_Line
100
AcDbLine
370
-1
  6
HS_Hidden
 10
-28
 20
9
 30
0
 11
4
 21
9
 31
0
  0
LINE
  5
B4
100
AcDbEntity
  8
HS_Connection_Line
100
AcDbLine
370
-1
  6
HS_Hidden
 10
4
 20
9
 30
0
 11
4
 21
-1
 31
0
  0
LINE
  5
B5
100
AcDbEntity
  8
HS_Connection_Line
100
AcDbLine
370
-1
  6
HS_Hidden
 10
4
 20
-1
 30
0
 11
1
 21
-1
 31
0
  0
CIRCLE
  5
B6
100
AcDbEntity
  8
HS_Connection_Line
100
AcDbCircle
370
-1
  6
HS_Solid
 10
7
 20
19
 30
0
 40
0.8
  0
LWPOLYLINE
  5
B7
100
AcDbEntity
  8
HS_Connection_Line
100
AcDbPolyline
  6
HS_Solid
 38
0
 90
34
 70
0
 10
6.63350172216732
 20
19.7111111111111
 10
7.36649827783268
 20
19.7111111111111
 10
6.49716851115623
 20
19.6222222222222
 10
7.50283148884377
 20
19.6222222222222
 10
6.40371520600006
 20
19.5333333333333
 10
7.59628479399994
 20
19.5333333333333
 10
6.33481646457352
 20
19.4444444444444
 10
7.66518353542648
 20
19.4444444444444
 10
6.28335486681791
 20
19.3555555555556
 10
7.71664513318209
 20
19.3555555555556
 10
6.24575276673435
 20
19.2666666666667
 10
7.75424723326565
 20
19.2666666666667
 10
6.22000316556514
 20
19.1777777777778
 10
7.77999683443486
 20
19.1777777777778
 10
6.20495360800007
 20
19.0888888888889
 10
7.79504639199993
 20
19.0888888888889
 10
6.2
 20
19
 10
7.8
 20
19
 10
6.20495360800007
 20
18.9111111111111
 10
7.79504639199993
 20
18.9111111111111
 10
6.22000316556514
 20
18.8222222222222
 10
7.77999683443486
 20
18.8222222222222
 10
6.24575276673435
 20
18.7333333333333
 10
7.75424723326565
 20
18.7333333333333
 10
6.28335486681791
 20
18.6444444444444
 10
7.71664513318209
 20
18.6444444444444
 10
6.33481646457352
 20
18.5555555555556
 10
7.66518353542648
 20
18.5555555555556
 10
6.40371520600006
 20
18.4666666666667
 10
7.59628479399994
 20
18.4666666666667
 10
6.49716851115623
 20
18.3777777777778
 10
7.50283148884377
 20
18.3777777777778
 10
6.63350172216732
 20
18.2888888888889
 10
7.36649827783268
 20
18.2888888888889
  0
ARC
  5
B8
100
AcDbEntity
  8
HS_Connection_Line
100
AcDbCircle
370
-1
 10
7
 20
14
 30
0
 40
1
100
AcDbArc
 50
270
 51
90
  0
LINE
  5
B9
100
AcDbEntity
  8
HS_Connection_Line
100
AcDbLine
370
-1
 10
7
 20
19
 30
0
 11
6.99999982515444
 21
15
 31
0
  0
ARC
  5
BA
100
AcDbEntity
  8
HS_Connection_Line
100
AcDbCircle
370
-1
 10
7
 20
14
 30
0
 40
1
100
AcDbArc
 50
270
 51
90
  0
ARC
  5
BB
100
AcDbEntity
  8
HS_Connection_Line
100
AcDbCircle
370
-1
 10
7
 20
-10
 30
0
 40
1
100
AcDbArc
 50
270
 51
90
  0
LINE
  5
BC
100
AcDbEntity
  8
HS_Connection_Line
100
AcDbLine
370
-1
 10
6.99999899463803
 20
13
 30
0
 11
6.99999899463803
 21
-8.99999999999998
 31
0
  0
ARC
  5
BD
100
AcDbEntity
  8
HS_Connection_Line
100
AcDbCircle
370
-1
 10
7
 20
-10
 30
0
 40
1
100
AcDbArc
 50
270
 51
90
  0
LINE
  5
BE
100
AcDbEntity
  8
HS_Connection_Line
100
AcDbLine
370
-1
 10
6.99999973773166
 20
-11
 30
0
 11
7
 21
-17
 31
0
  0
LINE
  5
BF
100
AcDbEntity
  8
HS_Connection_Line
100
AcDbLine
370
-1
  6
HS_Hidden
 10
2.5
 20
19
 30
0
 11
7
 21
19
 31
0
  0
LINE
  5
C0
100
AcDbEntity
  8
HS_IBorder
100
AcDbLine
370
-1
 10
-37
 20
-17
 30
0
 11
-37
 21
-11
 31
0
  0
LINE
  5
C1
100
AcDbEntity
  8
HS_IBorder
100
AcDbLine
370
-1
 10
-37
 20
-9
 30
0
 11
-37
 21
27
 31
0
  0
LINE
  5
C2
100
AcDbEntity
  8
HS_IBorder
100
AcDbLine
370
-1
 10
-37
 20
27
 30
0
 11
27
 21
27
 31
0
  0
LINE
  5
C3
100
AcDbEntity
  8
HS_IBorder
100
AcDbLine
370
-1
 10
27
 20
-17
 30
0
 11
27
 21
13
 31
0
  0
LINE
  5
C4
100
AcDbEntity
  8
HS_IBorder
100
AcDbLine
370
-1
 10
27
 20
15
 30
0
 11
27
 21
27
 31
0
  0
LINE
  5
C5
100
AcDbEntity
  8
HS_IBorder
100
AcDbLine
370
-1
 10
-37
 20
-17
 30
0
 11
27
 21
-17
 31
0
  0
TEXT
  5
C6
100
AcDbEntity
  8
HS_Port
100
AcDbText
370
-1
 10
-40.7
 20
-7
 30
0
 40
2
  1
P1
 50
0
 41
1
 51
0
  7
TextStyle_IPort
 71
0
 72
0
 11
-40.7
 21
-7
 31
0
100
AcDbText
 73
2
  0
CIRCLE
  5
C7
100
AcDbEntity
  8
HS_Symbol
100
AcDbCircle
370
-1
 10
-37
 20
-10
 30
0
 40
1
  0
TEXT
  5
C8
100
AcDbEntity
  8
HS_Port
100
AcDbText
370
-1
 10
27.3
 20
17
 30
0
 40
2
  1
Pp
 50
0
 41
1
 51
0
  7
TextStyle_IPort
 71
0
 72
0
 11
27.3
 21
17
 31
0
100
AcDbText
 73
2
  0
CIRCLE
  5
C9
100
AcDbEntity
  8
HS_Symbol
100
AcDbCircle
370
-1
 10
27
 20
14
 30
0
 40
1
  0
CIRCLE
  5
CA
100
AcDbEntity
  8
HS_Connection_Line
100
AcDbCircle
370
-1
  6
HS_Solid
 10
-33
 20
-10
 30
0
 40
0.8
  0
LWPOLYLINE
  5
CB
100
AcDbEntity
  8
HS_Connection_Line
100
AcDbPolyline
  6
HS_Solid
 38
0
 90
34
 70
0
 10
-33.3664982778327
 20
-9.28888888888889
 10
-32.6335017221673
 20
-9.28888888888889
 10
-33.5028314888438
 20
-9.37777777777778
 10
-32.4971685111562
 20
-9.37777777777778
 10
-33.5962847939999
 20
-9.46666666666667
 10
-32.4037152060001
 20
-9.46666666666667
 10
-33.6651835354265
 20
-9.55555555555556
 10
-32.3348164645735
 20
-9.55555555555556
 10
-33.7166451331821
 20
-9.64444444444445
 10
-32.2833548668179
 20
-9.64444444444445
 10
-33.7542472332657
 20
-9.73333333333333
 10
-32.2457527667343
 20
-9.73333333333333
 10
-33.7799968344349
 20
-9.82222222222222
 10
-32.2200031655651
 20
-9.82222222222222
 10
-33.7950463919999
 20
-9.91111111111111
 10
-32.2049536080001
 20
-9.91111111111111
 10
-33.8
 20
-10
 10
-32.2
 20
-10
 10
-33.7950463919999
 20
-10.0888888888889
 10
-32.2049536080001
 20
-10.0888888888889
 10
-33.7799968344349
 20
-10.1777777777778
 10
-32.2200031655651
 20
-10.1777777777778
 10
-33.7542472332657
 20
-10.2666666666667
 10
-32.2457527667343
 20
-10.2666666666667
 10
-33.7166451331821
 20
-10.3555555555556
 10
-32.2833548668179
 20
-10.3555555555556
 10
-33.6651835354265
 20
-10.4444444444444
 10
-32.3348164645735
 20
-10.4444444444444
 10
-33.5962847939999
 20
-10.5333333333333
 10
-32.4037152060001
 20
-10.5333333333333
 10
-33.5028314888438
 20
-10.6222222222222
 10
-32.4971685111562
 20
-10.6222222222222
 10
-33.3664982778327
 20
-10.7111111111111
 10
-32.6335017221673
 20
-10.7111111111111
  0
LINE
  5
CC
100
AcDbEntity
  8
HS_Connection_Line
100
AcDbLine
370
-1
 10
-33
 20
-10
 30
0
 11
-33
 21
-17
 31
0
  0
LINE
  5
CD
100
AcDbEntity
  8
HS_Connection_Line
100
AcDbLine
370
-1
 10
-36
 20
-10
 30
0
 11
-33
 21
-10
 31
0
  0
LINE
  5
CE
100
AcDbEntity
  8
HS_Pilot
100
AcDbLine
370
-1
 10
-5
 20
-1
 30
0
 11
-7
 21
-3
 31
0
  0
LINE
  5
CF
100
AcDbEntity
  8
HS_Pilot
100
AcDbLine
370
-1
 10
-7
 20
-7
 30
0
 11
-2
 21
-7
 31
0
  0
LINE
  5
D0
100
AcDbEntity
  8
HS_Pilot
100
AcDbLine
370
-1
 10
-2
 20
-7
 30
0
 11
-2
 21
-4
 31
0
  0
LINE
  5
D1
100
AcDbEntity
  8
HS_Pilot
100
AcDbLine
370
-1
 10
-7
 20
-3
 30
0
 11
-7
 21
-7
 31
0
  0
LINE
  5
D2
100
AcDbEntity
  8
HS_Pilot
100
AcDbLine
370
-1
 10
-28
 20
-4
 30
0
 11
-30
 21
-6
 31
0
  0
LINE
  5
D3
100
AcDbEntity
  8
HS_Pilot
100
AcDbLine
370
-1
 10
-34
 20
-6
 30
0
 11
-34
 21
-1
 31
0
  0
LINE
  5
D4
100
AcDbEntity
  8
HS_Pilot
100
AcDbLine
370
-1
 10
-34
 20
-1
 30
0
 11
-31
 21
-1
 31
0
  0
LINE
  5
D5
100
AcDbEntity
  8
HS_Pilot
100
AcDbLine
370
-1
 10
-30
 20
-6
 30
0
 11
-34
 21
-6
 31
0
  0
CIRCLE
  5
D6
100
AcDbEntity
  8
HS_Connection_Line
100
AcDbCircle
370
-1
  6
HS_Solid
 10
-2
 20
14
 30
0
 40
0.8
  0
LWPOLYLINE
  5
D7
100
AcDbEntity
  8
HS_Connection_Line
100
AcDbPolyline
  6
HS_Solid
 38
0
 90
34
 70
0
 10
-2.36649827783268
 20
14.7111111111111
 10
-1.63350172216732
 20
14.7111111111111
 10
-2.50283148884377
 20
14.6222222222222
 10
-1.49716851115623
 20
14.6222222222222
 10
-2.59628479399994
 20
14.5333333333333
 10
-1.40371520600006
 20
14.5333333333333
 10
-2.66518353542648
 20
14.4444444444444
 10
-1.33481646457352
 20
14.4444444444444
 10
-2.71664513318209
 20
14.3555555555556
 10
-1.28335486681791
 20
14.3555555555556
 10
-2.75424723326565
 20
14.2666666666667
 10
-1.24575276673435
 20
14.2666666666667
 10
-2.77999683443486
 20
14.1777777777778
 10
-1.22000316556514
 20
14.1777777777778
 10
-2.79504639199993
 20
14.0888888888889
 10
-1.20495360800007
 20
14.0888888888889
 10
-2.8
 20
14
 10
-1.2
 20
14
 10
-2.79504639199993
 20
13.9111111111111
 10
-1.20495360800007
 20
13.9111111111111
 10
-2.77999683443486
 20
13.8222222222222
 10
-1.22000316556514
 20
13.8222222222222
 10
-2.75424723326565
 20
13.7333333333333
 10
-1.24575276673435
 20
13.7333333333333
 10
-2.71664513318209
 20
13.6444444444444
 10
-1.28335486681791
 20
13.6444444444444
 10
-2.66518353542648
 20
13.5555555555556
 10
-1.33481646457352
 20
13.5555555555556
 10
-2.59628479399994
 20
13.4666666666667
 10
-1.40371520600006
 20
13.4666666666667
 10
-2.50283148884377
 20
13.3777777777778
 10
-1.49716851115623
 20
13.3777777777778
 10
-2.36649827783268
 20
13.2888888888889
 10
-1.63350172216732
 20
13.2888888888889
  0
LINE
  5
D8
100
AcDbEntity
  8
HS_Connection_Line
100
AcDbLine
370
-1
  6
HS_Hidden
 10
-2
 20
14
 30
0
 11
26
 21
14
 31
0
  0
ARC
  5
D9
100
AcDbEntity
  8
HS_Connection_Line
100
AcDbCircle
370
-1
  6
HS_Hidden
 10
-2
 20
9
 30
0
 40
1
100
AcDbArc
 50
270
 51
90
  0
LINE
  5
DA
100
AcDbEntity
  8
HS_Connection_Line
100
AcDbLine
370
-1
  6
HS_Hidden
 10
-2
 20
14
 30
0
 11
-2.00000017484556
 21
10
 31
0
  0
ARC
  5
DB
100
AcDbEntity
  8
HS_Connection_Line
100
AcDbCircle
370
-1
  6
HS_Hidden
 10
-2
 20
9
 30
0
 40
1
100
AcDbArc
 50
270
 51
90
  0
LINE
  5
DC
100
AcDbEntity
  8
HS_Connection_Line
100
AcDbLine
370
-1
  6
HS_Hidden
 10
-2.00000009616506
 20
8
 30
0
 11
-2
 21
5.8
 31
0
  0
ENDSEC
  0
SECTION
  2
OBJECTS
  0
DICTIONARY
  5
DD
100
AcDbDictionary
  3
ACAD_GROUP
350
DE
  3
ACAD_MATERIAL
350
DF
  3
ACAD_WIPEOUT_VARS
350
E0
  3
ACAD_MLINESTYLE
350
E1
  3
ACAD_LAYOUT
350
E2
  0
DICTIONARY
  5
DE
330
DD
100
AcDbDictionary
  0
DICTIONARY
  5
DF
330
DD
100
AcDbDictionary
  0
WIPEOUTVARIABLES
  5
E0
330
DD
100
AcDbWipeoutVariables
 70
1
  0
DICTIONARY
  5
E1
330
DD
100
AcDbDictionary
  3
STANDARD
350
E3
  0
MLINESTYLE
  5
E3
100
AcDbMlineStyle
  2
STANDARD
 70
0
  3

 62
256
 51
90
 52
90
 71
2
 49
0.5
 62
256
  6
ByLayer
 49
-0.5
 62
256
  6
ByLayer
  0
DICTIONARY
  5
E2
100
AcDbDictionary
281
1
  3
Model
350
13
  0
LAYOUT
  5
13
102
{ACAD_REACTORS
330
E2
102
}
330
E2
100
AcDbPlotSettings
  1

  2
none_device
  4

  6

 40
0
 41
0
 42
0
 43
0
 44
0
 45
0
 46
0
 47
0
 48
0
 49
0
 70
1712
 72
1
 73
0
 74
5
 75
16
 76
0
 77
0
 78
100
140
0
141
0
142
1
143
1
147
1
148
0
149
0
100
AcDbLayout
  1
Model
 70
1
 71
1
 10
-37
 20
-17
 11
27
 21
27
 12
0
 22
0
 32
0
 14
-37
 24
-17
 34
0
 15
27
 25
27
 35
0
146
0
 13
0
 23
0
 33
0
 16
1
 26
0
 36
0
 17
0
 27
1
 37
0
 76
0
330
63
  0
DICTIONARY
  5
E4
100
AcDbDictionary
280
1
  3
XINFO
360
E5
  0
XRECORD
  5
E5
102
{ACAD_REACTORS
330
E4
102
}
330
E4
100
AcDbXrecord
280
0
310
000000007D00E807
311
C3F7D666FDF0A26B
  0
ENDSEC
  0
EOF
