999
The file was created in CADSoftTools software
999

  0
SECTION
  2
HEADER
  9
$ACADVER
  1
AC1015
  9
$DWGCODEPAGE
  3
ANSI_1252
  9
$CLAYER
  8
0
  9
$CELTYPE
  6
BYLAYER
  9
$CELTSCALE
 40
1
  9
$CELWEIGHT
370
-1
  9
$DIMALT
 70
0
  9
$DIMALTF
 40
1
  9
$DIMPOST
  1

  9
$DIMAPOST
  1

  9
$DIMSCALE
 40
1
  9
$DIMASZ
 40
0.18
  9
$DIMCLRD
 70
0
  9
$DIMCLRE
 70
0
  9
$DIMCLRT
 70
0
  9
$DIMEXE
 40
0.18
  9
$DIMEXO
 40
0.0625
  9
$DIMGAP
 40
0.0625
  9
$DIMLFAC
 40
1
  9
$DIMDEC
 70
4
  9
$DIMTAD
 70
0
  9
$DIMCEN
 40
0.09
  9
$DIMTIH
 70
1
  9
$DIMTIX
 70
0
  9
$DIMTOH
 70
1
  9
$DIMSE1
 70
0
  9
$DIMSE2
 70
0
  9
$DIMSD1
 70
0
  9
$DIMSD2
 70
0
  9
$DIMLWD
 70
-1
  9
$DIMLWE
 70
-1
  9
$DIMSAH
 70
0
  9
$DIMBLK
  1

  9
$DIMBLK1
  1

  9
$DIMBLK2
  1

  9
$DIMLDRBLK
  1

  9
$DIMSTYLE
  2
STANDARD
  9
$DIMTP
 40
0
  9
$DIMTM
 40
0
  9
$DIMTXT
 40
0.18
  9
$DIMLUNIT
 70
2
  9
$DIMDSEP
 70
46
  9
$DIMTXSTY
  7
STANDARD
  9
$TEXTSIZE
 40
0.18
  9
$TEXTSTYLE
  7
STANDARD
  9
$HANDSEED
  5
00000000000000EA
  9
$FILLETRAD
 40
0.5
  9
$INSUNITS
 70
4
  9
$LIMMIN
 10
-51.5
 20
-43
  9
$LIMMAX
 10
53.5
 20
67
  9
$FILLMODE
 70
1
  9
$LTSCALE
 40
1
  9
$MEASUREMENT
 70
0
  9
$ATTMODE
 70
1
  9
$PDMODE
 70
0
  9
$PDSIZE
 40
0
  9
$TILEMODE
 70
1
  9
$UCSORG
 10
0
 20
0
 30
0
  9
$UCSXDIR
 10
1
 20
0
 30
0
  9
$UCSYDIR
 10
0
 20
1
 30
0
  9
$INSBASE
 10
0
 20
0
 30
0
  9
$XCLIPFRAME
290
1
  9
$DIMASSOC
280
2
  9
$TDCREATE
 40
2460469.38849851
  9
$TDINDWG
 40
4.51388888888889E-7
  9
$TDUPDATE
 40
2460469.38849896
  0
ENDSEC
  0
SECTION
  2
CLASSES
  0
CLASS
  1
IMAGE
  2
AcDbRasterImage
  3
ISM
 90
2175
280
0
281
1
  0
CLASS
  1
IMAGEDEF
  2
AcDbRasterImageDef
  3
ISM
 90
0
280
0
281
0
  0
CLASS
  1
WIPEOUT
  2
AcDbWipeout
  3
"WipeOut"
 90
2175
280
0
281
1
  0
CLASS
  1
WIPEOUTVARIABLES
  2
AcDbWipeoutVariables
  3
"WipeOut"
 90
0
280
0
281
0
  0
CLASS
  1
MPOLYGON
  2
AcDbMPolygon
  3
"AcMPolygonObj15"
 90
3071
280
0
281
1
  0
ENDSEC
  0
SECTION
  2
TABLES
  0
TABLE
  2
APPID
  5
64
100
AcDbSymbolTable
  0
APPID
  5
65
100
AcDbSymbolTableRecord
100
AcDbRegAppTableRecord
  2
ACAD
 70
0
  0
APPID
  5
12
100
AcDbSymbolTableRecord
100
AcDbRegAppTableRecord
  2
CSTINVENTORY
 70
0
  0
APPID
  5
66
100
AcDbSymbolTableRecord
100
AcDbRegAppTableRecord
  2
AcDbAttr
 70
0
  0
APPID
  5
67
100
AcDbSymbolTableRecord
100
AcDbRegAppTableRecord
  2
PE_URL
 70
0
  0
ENDTAB
  0
TABLE
  2
BLOCK_RECORD
  5
68
100
AcDbSymbolTable
  0
BLOCK_RECORD
  5
63
100
AcDbSymbolTableRecord
100
AcDbBlockTableRecord
  2
*MODEL_SPACE
  0
BLOCK_RECORD
  5
69
100
AcDbSymbolTableRecord
100
AcDbBlockTableRecord
  2
*PAPER_SPACE
  0
BLOCK_RECORD
  5
10
100
AcDbSymbolTableRecord
100
AcDbBlockTableRecord
  2
_CLOSEDFILLED
  0
ENDTAB
  0
TABLE
  2
STYLE
  5
3
100
AcDbSymbolTable
  0
STYLE
  5
A
100
AcDbSymbolTableRecord
100
AcDbTextStyleTableRecord
  2
STANDARD
 70
0
 40
0
 41
1
 50
0
 71
0
 42
2.5
  3
txt
  4

  0
STYLE
  5
2E
100
AcDbSymbolTableRecord
100
AcDbTextStyleTableRecord
  2
HS_Text1
 70
0
 40
0
 41
1
 50
0
 71
0
 42
2.5
  3
arial.ttf
  4

1001
ACAD
1000
Arial
1071
0
  0
STYLE
  5
2F
100
AcDbSymbolTableRecord
100
AcDbTextStyleTableRecord
  2
HS_Text1__BD
 70
0
 40
0
 41
1
 50
0
 71
0
 42
2.5
  3
arialbd.ttf
  4

1001
ACAD
1000
Arial
1071
33554432
  0
STYLE
  5
30
100
AcDbSymbolTableRecord
100
AcDbTextStyleTableRecord
  2
HS_Text1__IT
 70
0
 40
0
 41
1
 50
0
 71
0
 42
2.5
  3
arialbi.ttf
  4

1001
ACAD
1000
Arial
1071
16777216
  0
STYLE
  5
31
100
AcDbSymbolTableRecord
100
AcDbTextStyleTableRecord
  2
HS_Text1__BI
 70
0
 40
0
 41
1
 50
0
 71
0
 42
2.5
  3
arialbi.ttf
  4

1001
ACAD
1000
Arial
1071
50331648
  0
STYLE
  5
32
100
AcDbSymbolTableRecord
100
AcDbTextStyleTableRecord
  2
TextStyle_Attribute
 70
0
 40
0
 41
1
 50
0
 71
0
 42
2.5
  3
arial.ttf
  4

1001
ACAD
1000
Arial
1071
0
  0
STYLE
  5
33
100
AcDbSymbolTableRecord
100
AcDbTextStyleTableRecord
  2
TextStyle_Attribute__BD
 70
0
 40
0
 41
1
 50
0
 71
0
 42
2.5
  3
arialbd.ttf
  4

1001
ACAD
1000
Arial
1071
33554432
  0
STYLE
  5
34
100
AcDbSymbolTableRecord
100
AcDbTextStyleTableRecord
  2
TextStyle_Attribute__IT
 70
0
 40
0
 41
1
 50
0
 71
0
 42
2.5
  3
arialbi.ttf
  4

1001
ACAD
1000
Arial
1071
16777216
  0
STYLE
  5
35
100
AcDbSymbolTableRecord
100
AcDbTextStyleTableRecord
  2
TextStyle_Attribute__BI
 70
0
 40
0
 41
1
 50
0
 71
0
 42
2.5
  3
arialbi.ttf
  4

1001
ACAD
1000
Arial
1071
50331648
  0
STYLE
  5
36
100
AcDbSymbolTableRecord
100
AcDbTextStyleTableRecord
  2
TextStyle_BOM
 70
0
 40
0
 41
1
 50
0
 71
0
 42
2.5
  3
ARIALN.TTF
  4

1001
ACAD
1000
Arial Narrow
1071
0
  0
STYLE
  5
37
100
AcDbSymbolTableRecord
100
AcDbTextStyleTableRecord
  2
TextStyle_BOM__BD
 70
0
 40
0
 41
1
 50
0
 71
0
 42
2.5
  3
ARIALNB.TTF
  4

1001
ACAD
1000
Arial Narrow
1071
33554432
  0
STYLE
  5
38
100
AcDbSymbolTableRecord
100
AcDbTextStyleTableRecord
  2
TextStyle_BOM__IT
 70
0
 40
0
 41
1
 50
0
 71
0
 42
2.5
  3
ARIALNBI.TTF
  4

1001
ACAD
1000
Arial Narrow
1071
16777216
  0
STYLE
  5
39
100
AcDbSymbolTableRecord
100
AcDbTextStyleTableRecord
  2
TextStyle_BOM__BI
 70
0
 40
0
 41
1
 50
0
 71
0
 42
2.5
  3
ARIALNBI.TTF
  4

1001
ACAD
1000
Arial Narrow
1071
50331648
  0
STYLE
  5
3A
100
AcDbSymbolTableRecord
100
AcDbTextStyleTableRecord
  2
TextStyle_ConnectionLineFlow
 70
0
 40
0
 41
1
 50
0
 71
0
 42
2.5
  3
arial.ttf
  4

1001
ACAD
1000
Arial
1071
0
  0
STYLE
  5
3B
100
AcDbSymbolTableRecord
100
AcDbTextStyleTableRecord
  2
TextStyle_ConnectionLineFlow__BD
 70
0
 40
0
 41
1
 50
0
 71
0
 42
2.5
  3
arialbd.ttf
  4

1001
ACAD
1000
Arial
1071
33554432
  0
STYLE
  5
3C
100
AcDbSymbolTableRecord
100
AcDbTextStyleTableRecord
  2
TextStyle_ConnectionLineFlow__IT
 70
0
 40
0
 41
1
 50
0
 71
0
 42
2.5
  3
arialbi.ttf
  4

1001
ACAD
1000
Arial
1071
16777216
  0
STYLE
  5
3D
100
AcDbSymbolTableRecord
100
AcDbTextStyleTableRecord
  2
TextStyle_ConnectionLineFlow__BI
 70
0
 40
0
 41
1
 50
0
 71
0
 42
2.5
  3
arialbi.ttf
  4

1001
ACAD
1000
Arial
1071
50331648
  0
STYLE
  5
3E
100
AcDbSymbolTableRecord
100
AcDbTextStyleTableRecord
  2
TextStyle_ConnectionLineSize
 70
0
 40
0
 41
1
 50
0
 71
0
 42
2.5
  3
arial.ttf
  4

1001
ACAD
1000
Arial
1071
0
  0
STYLE
  5
3F
100
AcDbSymbolTableRecord
100
AcDbTextStyleTableRecord
  2
TextStyle_ConnectionLineSize__BD
 70
0
 40
0
 41
1
 50
0
 71
0
 42
2.5
  3
arialbd.ttf
  4

1001
ACAD
1000
Arial
1071
33554432
  0
STYLE
  5
40
100
AcDbSymbolTableRecord
100
AcDbTextStyleTableRecord
  2
TextStyle_ConnectionLineSize__IT
 70
0
 40
0
 41
1
 50
0
 71
0
 42
2.5
  3
arialbi.ttf
  4

1001
ACAD
1000
Arial
1071
16777216
  0
STYLE
  5
41
100
AcDbSymbolTableRecord
100
AcDbTextStyleTableRecord
  2
TextStyle_ConnectionLineSize__BI
 70
0
 40
0
 41
1
 50
0
 71
0
 42
2.5
  3
arialbi.ttf
  4

1001
ACAD
1000
Arial
1071
50331648
  0
STYLE
  5
42
100
AcDbSymbolTableRecord
100
AcDbTextStyleTableRecord
  2
TextStyle_ConnectionLineVelocity
 70
0
 40
0
 41
1
 50
0
 71
0
 42
2.5
  3
arial.ttf
  4

1001
ACAD
1000
Arial
1071
0
  0
STYLE
  5
43
100
AcDbSymbolTableRecord
100
AcDbTextStyleTableRecord
  2
TextStyle_ConnectionLineVelocity__BD
 70
0
 40
0
 41
1
 50
0
 71
0
 42
2.5
  3
arialbd.ttf
  4

1001
ACAD
1000
Arial
1071
33554432
  0
STYLE
  5
44
100
AcDbSymbolTableRecord
100
AcDbTextStyleTableRecord
  2
TextStyle_ConnectionLineVelocity__IT
 70
0
 40
0
 41
1
 50
0
 71
0
 42
2.5
  3
arialbi.ttf
  4

1001
ACAD
1000
Arial
1071
16777216
  0
STYLE
  5
45
100
AcDbSymbolTableRecord
100
AcDbTextStyleTableRecord
  2
TextStyle_ConnectionLineVelocity__BI
 70
0
 40
0
 41
1
 50
0
 71
0
 42
2.5
  3
arialbi.ttf
  4

1001
ACAD
1000
Arial
1071
50331648
  0
STYLE
  5
46
100
AcDbSymbolTableRecord
100
AcDbTextStyleTableRecord
  2
TextStyle_HoseType
 70
0
 40
0
 41
1
 50
0
 71
0
 42
2.5
  3
arial.ttf
  4

1001
ACAD
1000
Arial
1071
0
  0
STYLE
  5
47
100
AcDbSymbolTableRecord
100
AcDbTextStyleTableRecord
  2
TextStyle_HoseType__BD
 70
0
 40
0
 41
1
 50
0
 71
0
 42
2.5
  3
arialbd.ttf
  4

1001
ACAD
1000
Arial
1071
33554432
  0
STYLE
  5
48
100
AcDbSymbolTableRecord
100
AcDbTextStyleTableRecord
  2
TextStyle_HoseType__IT
 70
0
 40
0
 41
1
 50
0
 71
0
 42
2.5
  3
arialbi.ttf
  4

1001
ACAD
1000
Arial
1071
16777216
  0
STYLE
  5
49
100
AcDbSymbolTableRecord
100
AcDbTextStyleTableRecord
  2
TextStyle_HoseType__BI
 70
0
 40
0
 41
1
 50
0
 71
0
 42
2.5
  3
arialbi.ttf
  4

1001
ACAD
1000
Arial
1071
50331648
  0
STYLE
  5
4A
100
AcDbSymbolTableRecord
100
AcDbTextStyleTableRecord
  2
TextStyle_IPort
 70
0
 40
0
 41
1
 50
0
 71
0
 42
2.5
  3
arial.ttf
  4

1001
ACAD
1000
Arial
1071
0
  0
STYLE
  5
4B
100
AcDbSymbolTableRecord
100
AcDbTextStyleTableRecord
  2
TextStyle_IPort__BD
 70
0
 40
0
 41
1
 50
0
 71
0
 42
2.5
  3
arialbd.ttf
  4

1001
ACAD
1000
Arial
1071
33554432
  0
STYLE
  5
4C
100
AcDbSymbolTableRecord
100
AcDbTextStyleTableRecord
  2
TextStyle_IPort__IT
 70
0
 40
0
 41
1
 50
0
 71
0
 42
2.5
  3
arialbi.ttf
  4

1001
ACAD
1000
Arial
1071
16777216
  0
STYLE
  5
4D
100
AcDbSymbolTableRecord
100
AcDbTextStyleTableRecord
  2
TextStyle_IPort__BI
 70
0
 40
0
 41
1
 50
0
 71
0
 42
2.5
  3
arialbi.ttf
  4

1001
ACAD
1000
Arial
1071
50331648
  0
STYLE
  5
4E
100
AcDbSymbolTableRecord
100
AcDbTextStyleTableRecord
  2
TextStyle_ItemNumber
 70
0
 40
0
 41
1
 50
0
 71
0
 42
2.5
  3
arial.ttf
  4

1001
ACAD
1000
Arial
1071
0
  0
STYLE
  5
4F
100
AcDbSymbolTableRecord
100
AcDbTextStyleTableRecord
  2
TextStyle_ItemNumber__BD
 70
0
 40
0
 41
1
 50
0
 71
0
 42
2.5
  3
arialbd.ttf
  4

1001
ACAD
1000
Arial
1071
33554432
  0
STYLE
  5
50
100
AcDbSymbolTableRecord
100
AcDbTextStyleTableRecord
  2
TextStyle_ItemNumber__IT
 70
0
 40
0
 41
1
 50
0
 71
0
 42
2.5
  3
arialbi.ttf
  4

1001
ACAD
1000
Arial
1071
16777216
  0
STYLE
  5
51
100
AcDbSymbolTableRecord
100
AcDbTextStyleTableRecord
  2
TextStyle_ItemNumber__BI
 70
0
 40
0
 41
1
 50
0
 71
0
 42
2.5
  3
arialbi.ttf
  4

1001
ACAD
1000
Arial
1071
50331648
  0
STYLE
  5
52
100
AcDbSymbolTableRecord
100
AcDbTextStyleTableRecord
  2
TextStyle_Port
 70
0
 40
0
 41
1
 50
0
 71
0
 42
2.5
  3
arial.ttf
  4

1001
ACAD
1000
Arial
1071
0
  0
STYLE
  5
53
100
AcDbSymbolTableRecord
100
AcDbTextStyleTableRecord
  2
TextStyle_Port__BD
 70
0
 40
0
 41
1
 50
0
 71
0
 42
2.5
  3
arialbd.ttf
  4

1001
ACAD
1000
Arial
1071
33554432
  0
STYLE
  5
54
100
AcDbSymbolTableRecord
100
AcDbTextStyleTableRecord
  2
TextStyle_Port__IT
 70
0
 40
0
 41
1
 50
0
 71
0
 42
2.5
  3
arialbi.ttf
  4

1001
ACAD
1000
Arial
1071
16777216
  0
STYLE
  5
55
100
AcDbSymbolTableRecord
100
AcDbTextStyleTableRecord
  2
TextStyle_Port__BI
 70
0
 40
0
 41
1
 50
0
 71
0
 42
2.5
  3
arialbi.ttf
  4

1001
ACAD
1000
Arial
1071
50331648
  0
STYLE
  5
56
100
AcDbSymbolTableRecord
100
AcDbTextStyleTableRecord
  2
TextStyle_Revisions
 70
0
 40
0
 41
1
 50
0
 71
0
 42
2.5
  3
arial.ttf
  4

1001
ACAD
1000
Arial
1071
0
  0
STYLE
  5
57
100
AcDbSymbolTableRecord
100
AcDbTextStyleTableRecord
  2
TextStyle_Revisions__BD
 70
0
 40
0
 41
1
 50
0
 71
0
 42
2.5
  3
arialbd.ttf
  4

1001
ACAD
1000
Arial
1071
33554432
  0
STYLE
  5
58
100
AcDbSymbolTableRecord
100
AcDbTextStyleTableRecord
  2
TextStyle_Revisions__IT
 70
0
 40
0
 41
1
 50
0
 71
0
 42
2.5
  3
arialbi.ttf
  4

1001
ACAD
1000
Arial
1071
16777216
  0
STYLE
  5
59
100
AcDbSymbolTableRecord
100
AcDbTextStyleTableRecord
  2
TextStyle_Revisions__BI
 70
0
 40
0
 41
1
 50
0
 71
0
 42
2.5
  3
arialbi.ttf
  4

1001
ACAD
1000
Arial
1071
50331648
  0
STYLE
  5
5A
100
AcDbSymbolTableRecord
100
AcDbTextStyleTableRecord
  2
TextStyle_RevTriangle
 70
0
 40
0
 41
1
 50
0
 71
0
 42
2.5
  3
arial.ttf
  4

1001
ACAD
1000
Arial
1071
0
  0
STYLE
  5
5B
100
AcDbSymbolTableRecord
100
AcDbTextStyleTableRecord
  2
TextStyle_RevTriangle__BD
 70
0
 40
0
 41
1
 50
0
 71
0
 42
2.5
  3
arialbd.ttf
  4

1001
ACAD
1000
Arial
1071
33554432
  0
STYLE
  5
5C
100
AcDbSymbolTableRecord
100
AcDbTextStyleTableRecord
  2
TextStyle_RevTriangle__IT
 70
0
 40
0
 41
1
 50
0
 71
0
 42
2.5
  3
arialbi.ttf
  4

1001
ACAD
1000
Arial
1071
16777216
  0
STYLE
  5
5D
100
AcDbSymbolTableRecord
100
AcDbTextStyleTableRecord
  2
TextStyle_RevTriangle__BI
 70
0
 40
0
 41
1
 50
0
 71
0
 42
2.5
  3
arialbi.ttf
  4

1001
ACAD
1000
Arial
1071
50331648
  0
STYLE
  5
5E
100
AcDbSymbolTableRecord
100
AcDbTextStyleTableRecord
  2
TextStyle_Text
 70
0
 40
0
 41
1
 50
0
 71
0
 42
2.5
  3
arial.ttf
  4

1001
ACAD
1000
Arial
1071
0
  0
STYLE
  5
5F
100
AcDbSymbolTableRecord
100
AcDbTextStyleTableRecord
  2
TextStyle_Text__BD
 70
0
 40
0
 41
1
 50
0
 71
0
 42
2.5
  3
arialbd.ttf
  4

1001
ACAD
1000
Arial
1071
33554432
  0
STYLE
  5
60
100
AcDbSymbolTableRecord
100
AcDbTextStyleTableRecord
  2
TextStyle_Text__IT
 70
0
 40
0
 41
1
 50
0
 71
0
 42
2.5
  3
arialbi.ttf
  4

1001
ACAD
1000
Arial
1071
16777216
  0
STYLE
  5
61
100
AcDbSymbolTableRecord
100
AcDbTextStyleTableRecord
  2
TextStyle_Text__BI
 70
0
 40
0
 41
1
 50
0
 71
0
 42
2.5
  3
arialbi.ttf
  4

1001
ACAD
1000
Arial
1071
50331648
  0
ENDTAB
  0
TABLE
  2
LTYPE
  5
1
100
AcDbSymbolTable
  0
LTYPE
  5
9
100
AcDbSymbolTableRecord
100
AcDbLinetypeTableRecord
  2
CONTINUOUS
 70
0
  3

 72
65
 73
0
 40
0
  0
LTYPE
  5
7
100
AcDbSymbolTableRecord
100
AcDbLinetypeTableRecord
  2
BYLAYER
 70
0
  3

 72
65
 73
0
 40
0
  0
LTYPE
  5
8
100
AcDbSymbolTableRecord
100
AcDbLinetypeTableRecord
  2
BYBLOCK
 70
0
  3

 72
65
 73
0
 40
0
  0
LTYPE
  5
14
100
AcDbSymbolTableRecord
100
AcDbLinetypeTableRecord
  2
HS_Default
 70
0
  3

 72
65
 73
0
 40
0
  0
LTYPE
  5
15
100
AcDbSymbolTableRecord
100
AcDbLinetypeTableRecord
  2
HS_Solid
 70
0
  3

 72
65
 73
0
 40
0
  0
LTYPE
  5
16
100
AcDbSymbolTableRecord
100
AcDbLinetypeTableRecord
  2
HS_Hidden
 70
0
  3
_ 
 72
65
 73
2
 40
2.3
 49
1.5
 74
0
 49
-0.8
 74
0
  0
LTYPE
  5
17
100
AcDbSymbolTableRecord
100
AcDbLinetypeTableRecord
  2
HS_Dashed
 70
0
  3
_ 
 72
65
 73
2
 40
3.3
 49
2.5
 74
0
 49
-0.8
 74
0
  0
LTYPE
  5
18
100
AcDbSymbolTableRecord
100
AcDbLinetypeTableRecord
  2
HS_Border
 70
0
  3
_ _ 
 72
65
 73
4
 40
10
 49
6.5
 74
0
 49
-1
 74
0
 49
1.5
 74
0
 49
-1
 74
0
  0
ENDTAB
  0
TABLE
  2
LAYER
  5
2
100
AcDbSymbolTable
  0
LAYER
  5
E
100
AcDbSymbolTableRecord
100
AcDbLayerTableRecord
  2
0
 70
0
 62
7
  6
CONTINUOUS
290
1
370
-3
390
0
  0
LAYER
  5
19
100
AcDbSymbolTableRecord
100
AcDbLayerTableRecord
  2
HS_Symbol
 70
0
 62
7
  6
HS_Solid
290
1
370
35
390
0
  0
LAYER
  5
1A
100
AcDbSymbolTableRecord
100
AcDbLayerTableRecord
  2
HS_Solenoid
 70
0
 62
7
  6
HS_Solid
290
1
370
35
390
0
  0
LAYER
  5
1B
100
AcDbSymbolTableRecord
100
AcDbLayerTableRecord
  2
HS_Orifice
 70
0
 62
7
  6
HS_Solid
290
1
370
35
390
0
  0
LAYER
  5
1C
100
AcDbSymbolTableRecord
100
AcDbLayerTableRecord
  2
HS_Line
 70
0
 62
7
  6
HS_Solid
290
1
370
18
390
0
  0
LAYER
  5
1D
100
AcDbSymbolTableRecord
100
AcDbLayerTableRecord
  2
HS_Pilot
 70
0
 62
7
  6
HS_Dashed
290
1
370
18
390
0
  0
LAYER
  5
1E
100
AcDbSymbolTableRecord
100
AcDbLayerTableRecord
  2
HS_Drain
 70
0
 62
7
  6
HS_Hidden
290
1
370
18
390
0
  0
LAYER
  5
1F
100
AcDbSymbolTableRecord
100
AcDbLayerTableRecord
  2
HS_Border
 70
0
 62
7
  6
HS_Border
290
1
370
25
390
0
  0
LAYER
  5
20
100
AcDbSymbolTableRecord
100
AcDbLayerTableRecord
  2
HS_IBorder
 70
0
 62
7
  6
HS_Border
290
1
370
35
390
0
  0
LAYER
  5
21
100
AcDbSymbolTableRecord
100
AcDbLayerTableRecord
  2
HS_Text
 70
0
 62
7
  6
HS_Solid
290
1
390
0
  0
LAYER
  5
22
100
AcDbSymbolTableRecord
100
AcDbLayerTableRecord
  2
HS_Attribute
 70
0
 62
7
  6
HS_Solid
290
1
390
0
  0
LAYER
  5
23
100
AcDbSymbolTableRecord
100
AcDbLayerTableRecord
  2
HS_ItemNumber
 70
0
 62
7
  6
HS_Solid
290
1
390
0
  0
LAYER
  5
24
100
AcDbSymbolTableRecord
100
AcDbLayerTableRecord
  2
HS_Leader
 70
0
 62
7
  6
HS_Solid
290
1
390
0
  0
LAYER
  5
25
100
AcDbSymbolTableRecord
100
AcDbLayerTableRecord
  2
HS_Port
 70
0
 62
7
  6
HS_Solid
290
1
370
35
390
0
  0
LAYER
  5
26
100
AcDbSymbolTableRecord
100
AcDbLayerTableRecord
  2
HS_Connection_Line
 70
0
 62
7
  6
HS_Solid
290
1
370
35
390
0
  0
LAYER
  5
27
100
AcDbSymbolTableRecord
100
AcDbLayerTableRecord
  2
HS_Hose
 70
0
 62
7
  6
HS_Solid
290
1
370
35
390
0
  0
LAYER
  5
28
100
AcDbSymbolTableRecord
100
AcDbLayerTableRecord
  2
HS_Electric
 70
0
 62
7
  6
HS_Solid
290
1
370
35
390
0
  0
LAYER
  5
29
100
AcDbSymbolTableRecord
100
AcDbLayerTableRecord
  2
Pressure
 70
0
 62
30
  6
HS_Solid
290
1
370
20
390
0
  0
LAYER
  5
2A
100
AcDbSymbolTableRecord
100
AcDbLayerTableRecord
  2
Reservoir
 70
0
 62
140
  6
HS_Solid
290
1
370
20
390
0
  0
LAYER
  5
2B
100
AcDbSymbolTableRecord
100
AcDbLayerTableRecord
  2
Control
 70
0
 62
30
  6
HS_Dashed
290
1
370
20
390
0
  0
LAYER
  5
2C
100
AcDbSymbolTableRecord
100
AcDbLayerTableRecord
  2
Drain
 70
0
 62
140
  6
HS_Hidden
290
1
370
20
390
0
  0
LAYER
  5
2D
100
AcDbSymbolTableRecord
100
AcDbLayerTableRecord
  2
Working
 70
0
 62
70
  6
HS_Solid
290
1
370
20
390
0
  0
ENDTAB
  0
TABLE
  2
VPORT
  5
6A
100
AcDbSymbolTable
  0
VPORT
  5
6C
100
AcDbSymbolTableRecord
100
AcDbViewportTableRecord
  2
*ACTIVE
 70
0
 10
0
 20
0
 11
1
 21
1
 12
1
 22
12
 32
0
 13
0
 23
0
 14
1
 24
1
 15
1
 25
1
 16
0
 26
0
 36
1
 17
0
 27
0
 37
0
 40
88
 41
0.954545454545455
 42
50
 43
0
 44
0
 50
0
 51
0
 71
0
 72
100
 73
1
 74
1
 75
0
 76
0
 77
0
 78
0
  0
ENDTAB
  0
TABLE
  2
VIEW
  5
6D
100
AcDbSymbolTable
  0
ENDTAB
  0
TABLE
  2
UCS
  5
6E
100
AcDbSymbolTable
  0
ENDTAB
  0
TABLE
  2
DIMSTYLE
  5
4
100
AcDbSymbolTable
 70
1
100
AcDbDimStyleTable
 71
0
  0
DIMSTYLE
105
B
100
AcDbSymbolTableRecord
100
AcDbDimStyleTableRecord
  2
STANDARD
 70
0
  3

 40
1
 41
0.18
 42
0.0625
 44
0.18
 47
0
 48
0
 73
1
 74
1
 75
0
 76
0
 77
0
140
0.18
141
0.09
144
1
147
0.0625
173
0
174
0
176
0
177
0
178
0
277
2
278
46
281
0
282
0
271
4
340
A
371
-1
372
-1
  0
ENDTAB
  0
ENDSEC
  0
SECTION
  2
BLOCKS
  0
BLOCK
  5
6F
100
AcDbEntity
  8
0
100
AcDbBlockBegin
  2
*MODEL_SPACE
 70
0
 10
0
 20
0
  0
ENDBLK
  5
70
100
AcDbEntity
  8
0
100
AcDbBlockEnd
  0
BLOCK
  5
71
100
AcDbEntity
  8
0
100
AcDbBlockBegin
  2
*PAPER_SPACE
 70
0
 10
0
 20
0
  0
ENDBLK
  5
72
100
AcDbEntity
  8
0
100
AcDbBlockEnd
  0
BLOCK
  5
F
100
AcDbEntity
  8
0
100
AcDbBlockBegin
  2
_CLOSEDFILLED
 70
0
 10
0
 20
0
 30
0
  3
_CLOSEDFILLED
  1

  0
SOLID
  5
C
100
AcDbEntity
  8
0
100
AcDbTrace
370
-2
 62
0
 10
-1
 20
0.166666666666667
 30
0
 11
0
 21
0
 31
0
 12
-1
 22
0.166666666666667
 32
0
 13
-1
 23
-0.166666666666667
 33
0
  0
LINE
  5
D
100
AcDbEntity
  8
0
100
AcDbLine
370
-2
 62
0
 10
-1
 20
0
 30
0
 11
-2
 21
0
 31
0
  0
ENDBLK
  5
73
100
AcDbEntity
  8
0
100
AcDbBlockEnd
  0
ENDSEC
  0
SECTION
  2
ENTITIES
  0
SOLID
  5
74
100
AcDbEntity
  8
HS_Symbol
100
AcDbTrace
370
-1
  6
HS_Solid
 10
-9.00000013113417
 20
40
 30
0
 11
-10.4999966504696
 21
36.9999998688661
 31
0
 12
-7.50000334953043
 22
37
 32
0
 13
-7.50000334953043
 23
37
 33
0
  0
LINE
  5
75
100
AcDbEntity
  8
HS_Symbol
100
AcDbLine
370
-1
 10
-14.8094749716314
 20
32.4999998153371
 30
0
 11
-18
 21
32.5
 31
0
  0
LINE
  5
76
100
AcDbEntity
  8
HS_Symbol
100
AcDbLine
370
-1
 10
-14.8094750669909
 20
35.4999998153371
 30
0
 11
-18
 21
35.5
 31
0
  0
CIRCLE
  5
77
100
AcDbEntity
  8
HS_Symbol
100
AcDbCircle
370
-1
 10
-9
 20
34
 30
0
 40
6
  0
LINE
  5
78
100
AcDbEntity
  8
HS_Symbol
100
AcDbLine
370
-1
 10
-9
 20
34
 30
0
 11
-24.5857864376269
 21
49.5857864376269
 31
0
  0
SOLID
  5
79
100
AcDbEntity
  8
HS_Symbol
100
AcDbTrace
370
-1
  6
HS_Solid
 10
-24.9647238195899
 20
49.2068490556639
 30
0
 11
-24.2068490556639
 21
49.9647238195899
 31
0
 12
-26
 22
51
 32
0
 13
-26
 23
51
 33
0
  0
LINE
  5
7A
100
AcDbEntity
  8
HS_Symbol
100
AcDbLine
370
-1
 10
-18
 20
35.5
 30
0
 11
-41
 21
35.5
 31
0
  0
LINE
  5
7B
100
AcDbEntity
  8
HS_Symbol
100
AcDbLine
370
-1
 10
-18
 20
32.5
 30
0
 11
-41
 21
32.5
 31
0
  0
ARC
  5
7C
100
AcDbEntity
  8
HS_Symbol
100
AcDbCircle
370
-1
  6
HS_Solid
 10
-46.8375
 20
34.1
 30
0
 40
9.0375
100
AcDbArc
 50
330.137165643725
 51
29.8628343562751
  0
LINE
  5
7D
100
AcDbEntity
  8
HS_Symbol
100
AcDbLine
370
-1
  6
HS_Solid
 10
-38.9
 20
38.4
 30
0
 11
-38.1055728090001
 21
36.8111456180002
 31
0
  0
SOLID
  5
7E
100
AcDbEntity
  8
HS_Symbol
100
AcDbTrace
370
-1
  6
HS_Solid
 10
-38.5848948960338
 20
36.5714845744833
 30
0
 11
-37.6262507219664
 21
37.050806661517
 31
0
 12
-39
 22
38.6
 32
0
 13
-39
 23
38.6
 33
0
  0
LWPOLYLINE
  5
7F
100
AcDbEntity
  8
HS_Symbol
100
AcDbPolyline
370
-1
 38
0
 90
4
 70
1
 10
-29
 20
24
 10
-21
 20
24
 10
-21
 20
26
 10
-29
 20
26
  0
LINE
  5
80
100
AcDbEntity
  8
HS_Symbol
100
AcDbLine
370
-1
 10
-26
 20
26
 30
0
 11
-26
 21
51
 31
0
  0
LINE
  5
81
100
AcDbEntity
  8
HS_Symbol
100
AcDbLine
370
-1
 10
-24
 20
26
 30
0
 11
-24
 21
49
 31
0
  0
LINE
  5
82
100
AcDbEntity
  8
HS_Symbol
100
AcDbLine
370
-1
 10
-21
 20
8
 30
0
 11
-29
 21
10
 31
0
  0
LINE
  5
83
100
AcDbEntity
  8
HS_Symbol
100
AcDbLine
370
-1
 10
-29
 20
10
 30
0
 11
-21
 21
12
 31
0
  0
LINE
  5
84
100
AcDbEntity
  8
HS_Symbol
100
AcDbLine
370
-1
 10
-21
 20
12
 30
0
 11
-29
 21
14
 31
0
  0
LINE
  5
85
100
AcDbEntity
  8
HS_Symbol
100
AcDbLine
370
-1
 10
-29
 20
14
 30
0
 11
-21
 21
16
 31
0
  0
LINE
  5
86
100
AcDbEntity
  8
HS_Symbol
100
AcDbLine
370
-1
 10
-21
 20
16
 30
0
 11
-29
 21
18
 31
0
  0
LINE
  5
87
100
AcDbEntity
  8
HS_Symbol
100
AcDbLine
370
-1
 10
-29
 20
18
 30
0
 11
-21
 21
20
 31
0
  0
LINE
  5
88
100
AcDbEntity
  8
HS_Symbol
100
AcDbLine
370
-1
 10
-27
 20
28
 30
0
 11
-29
 21
28
 31
0
  0
LINE
  5
89
100
AcDbEntity
  8
HS_Symbol
100
AcDbLine
370
-1
 10
-29
 20
28
 30
0
 11
-29
 21
8
 31
0
  0
LINE
  5
8A
100
AcDbEntity
  8
HS_Symbol
100
AcDbLine
370
-1
 10
-29
 20
8
 30
0
 11
-21
 21
8
 31
0
  0
LINE
  5
8B
100
AcDbEntity
  8
HS_Symbol
100
AcDbLine
370
-1
 10
-21
 20
8
 30
0
 11
-21
 21
28
 31
0
  0
LINE
  5
8C
100
AcDbEntity
  8
HS_Symbol
100
AcDbLine
370
-1
 10
-21
 20
28
 30
0
 11
-23
 21
28
 31
0
  0
LINE
  5
8D
100
AcDbEntity
  8
HS_Symbol
100
AcDbLine
370
-1
 10
-21
 20
20
 30
0
 11
-29
 21
22
 31
0
  0
LINE
  5
8E
100
AcDbEntity
  8
HS_Symbol
100
AcDbLine
370
-1
 10
-29
 20
22
 30
0
 11
-21
 21
24
 31
0
  0
LWPOLYLINE
  5
8F
100
AcDbEntity
  8
HS_Symbol
100
AcDbPolyline
370
-1
 38
0
 90
4
 70
1
 10
3
 20
-8
 10
11
 20
-8
 10
11
 20
-6
 10
3
 20
-6
  0
LINE
  5
90
100
AcDbEntity
  8
HS_Symbol
100
AcDbLine
370
-1
 10
6
 20
-6
 30
0
 11
6
 21
19
 31
0
  0
LINE
  5
91
100
AcDbEntity
  8
HS_Symbol
100
AcDbLine
370
-1
 10
8
 20
-6
 30
0
 11
8
 21
17
 31
0
  0
LINE
  5
92
100
AcDbEntity
  8
HS_Symbol
100
AcDbLine
370
-1
 10
5
 20
8
 30
0
 11
3
 21
8
 31
0
  0
LINE
  5
93
100
AcDbEntity
  8
HS_Symbol
100
AcDbLine
370
-1
 10
3
 20
8
 30
0
 11
3
 21
-12
 31
0
  0
LINE
  5
94
100
AcDbEntity
  8
HS_Symbol
100
AcDbLine
370
-1
 10
3
 20
-12
 30
0
 11
11
 21
-12
 31
0
  0
LINE
  5
95
100
AcDbEntity
  8
HS_Symbol
100
AcDbLine
370
-1
 10
11
 20
-12
 30
0
 11
11
 21
8
 31
0
  0
LINE
  5
96
100
AcDbEntity
  8
HS_Symbol
100
AcDbLine
370
-1
 10
11
 20
8
 30
0
 11
9
 21
8
 31
0
  0
LINE
  5
97
100
AcDbEntity
  8
HS_Symbol
100
AcDbLine
370
-1
 10
-9
 20
34
 30
0
 11
6.58578643762691
 21
18.4142135623731
 31
0
  0
SOLID
  5
98
100
AcDbEntity
  8
HS_Symbol
100
AcDbTrace
370
-1
  6
HS_Solid
 10
6.96472381958992
 20
18.7931509443361
 30
0
 11
6.20684905566389
 21
18.0352761804101
 31
0
 12
8
 22
17
 32
0
 13
8
 23
17
 33
0
  0
TEXT
  5
99
100
AcDbEntity
  8
HS_Port
100
AcDbText
370
-1
 10
-7.9
 20
60
 30
0
 40
2
  1
OUT
 50
0
 41
1
 51
0
  7
TextStyle_IPort
 71
0
 72
0
 11
-7.9
 21
60
 31
0
100
AcDbText
 73
2
  0
CIRCLE
  5
9A
100
AcDbEntity
  8
HS_Symbol
100
AcDbCircle
370
-1
 10
-9
 20
56
 30
0
 40
1
  0
TEXT
  5
9B
100
AcDbEntity
  8
HS_Port
100
AcDbText
370
-1
 10
-6.4
 20
-36
 30
0
 40
2
  1
IN
 50
0
 41
1
 51
0
  7
TextStyle_IPort
 71
0
 72
0
 11
-6.4
 21
-36
 31
0
100
AcDbText
 73
2
  0
CIRCLE
  5
9C
100
AcDbEntity
  8
HS_Symbol
100
AcDbCircle
370
-1
 10
-9
 20
-32
 30
0
 40
1
  0
TEXT
  5
9D
100
AcDbEntity
  8
HS_Port
100
AcDbText
370
-1
 10
9.2
 20
-36
 30
0
 40
2
  1
D1
 50
0
 41
1
 51
0
  7
TextStyle_IPort
 71
0
 72
0
 11
9.2
 21
-36
 31
0
100
AcDbText
 73
2
  0
CIRCLE
  5
9E
100
AcDbEntity
  8
HS_Symbol
100
AcDbCircle
370
-1
 10
7
 20
-32
 30
0
 40
1
  0
TEXT
  5
9F
100
AcDbEntity
  8
HS_Port
100
AcDbText
370
-1
 10
21.2
 20
-36
 30
0
 40
2
  1
D2
 50
0
 41
1
 51
0
  7
TextStyle_IPort
 71
0
 72
0
 11
21.2
 21
-36
 31
0
100
AcDbText
 73
2
  0
CIRCLE
  5
A0
100
AcDbEntity
  8
HS_Symbol
100
AcDbCircle
370
-1
 10
19
 20
-32
 30
0
 40
1
  0
LINE
  5
A1
100
AcDbEntity
  8
HS_Symbol
100
AcDbLine
370
-1
 10
27
 20
-10
 30
0
 11
33
 21
-10
 31
0
  0
SOLID
  5
A2
100
AcDbEntity
  8
HS_Symbol
100
AcDbTrace
370
-1
  6
HS_Solid
 10
33
 20
-9.46410161513776
 30
0
 11
33
 21
-10.5358983848622
 31
0
 12
35
 22
-10
 32
0
 13
35
 23
-10
 33
0
  0
LINE
  5
A3
100
AcDbEntity
  8
HS_Symbol
100
AcDbLine
370
-1
 10
35
 20
2
 30
0
 11
28.7888543819998
 21
-1.10557280900009
 31
0
  0
SOLID
  5
A4
100
AcDbEntity
  8
HS_Symbol
100
AcDbTrace
370
-1
  6
HS_Solid
 10
29.0285154255167
 20
-1.58489489603382
 30
0
 11
28.549193338483
 21
-0.626250721966355
 31
0
 12
27
 22
-2
 32
0
 13
27
 23
-2
 33
0
  0
LWPOLYLINE
  5
A5
100
AcDbEntity
  8
HS_Symbol
100
AcDbPolyline
370
-1
 38
0
 90
4
 70
1
 10
35
 20
4
 10
27
 20
4
 10
27
 20
-12
 10
35
 20
-12
  0
LINE
  5
A6
100
AcDbEntity
  8
HS_Symbol
100
AcDbLine
370
-1
 10
35
 20
-4
 30
0
 11
27
 21
-4
 31
0
  0
LINE
  5
A7
100
AcDbEntity
  8
HS_Symbol
100
AcDbLine
370
-1
 10
26
 20
4
 30
0
 11
26
 21
-12
 31
0
  0
LINE
  5
A8
100
AcDbEntity
  8
HS_Symbol
100
AcDbLine
370
-1
 10
36
 20
-12
 30
0
 11
36
 21
4
 31
0
  0
LWPOLYLINE
  5
A9
100
AcDbEntity
  8
HS_Symbol
100
AcDbPolyline
370
-1
 38
0
 90
8
 70
0
 10
29
 20
-12
 10
31
 20
-12.4166666666667
 10
27
 20
-13.25
 10
31
 20
-14.0833333333333
 10
27
 20
-14.9166666666667
 10
31
 20
-15.75
 10
27
 20
-16.5833333333333
 10
29
 20
-17
  0
LINE
  5
AA
100
AcDbEntity
  8
HS_Symbol
100
AcDbLine
370
-1
 10
35
 20
-2
 30
0
 11
33
 21
-2
 31
0
  0
LINE
  5
AB
100
AcDbEntity
  8
HS_Symbol
100
AcDbLine
370
-1
 10
33
 20
-3
 30
0
 11
33
 21
-1
 31
0
  0
LINE
  5
AC
100
AcDbEntity
  8
HS_Symbol
100
AcDbLine
370
-1
 10
35
 20
-6
 30
0
 11
33
 21
-6
 31
0
  0
LINE
  5
AD
100
AcDbEntity
  8
HS_Symbol
100
AcDbLine
370
-1
 10
33
 20
-7
 30
0
 11
33
 21
-5
 31
0
  0
LINE
  5
AE
100
AcDbEntity
  8
HS_Symbol
100
AcDbLine
370
-1
 10
24
 20
-13
 30
0
 11
32.0843474295577
 21
-15.4253042288673
 31
0
  0
SOLID
  5
AF
100
AcDbEntity
  8
HS_Symbol
100
AcDbTrace
370
-1
  6
HS_Solid
 10
32.2383366973263
 20
-14.9120066696387
 30
0
 11
31.9303581617891
 21
-15.9386017880959
 31
0
 12
34
 22
-16
 32
0
 13
34
 23
-16
 33
0
  0
LINE
  5
B0
100
AcDbEntity
  8
HS_Connection_Line
100
AcDbLine
370
-1
 10
-9
 20
28
 30
0
 11
-9
 21
-31
 31
0
  0
LINE
  5
B1
100
AcDbEntity
  8
HS_Connection_Line
100
AcDbLine
370
-1
 10
-9
 20
55
 30
0
 11
-9
 21
48
 31
0
  0
LINE
  5
B2
100
AcDbEntity
  8
HS_Connection_Line
100
AcDbLine
370
-1
  6
HS_Hidden
 10
11
 20
-10
 30
0
 11
19
 21
-10
 31
0
  0
CIRCLE
  5
B3
100
AcDbEntity
  8
HS_Connection_Line
100
AcDbCircle
370
-1
  6
HS_Solid
 10
19
 20
-10
 30
0
 40
0.8
  0
LWPOLYLINE
  5
B4
100
AcDbEntity
  8
HS_Connection_Line
100
AcDbPolyline
  6
HS_Solid
 38
0
 90
34
 70
0
 10
18.6335017221673
 20
-9.28888888888889
 10
19.3664982778327
 20
-9.28888888888889
 10
18.4971685111562
 20
-9.37777777777778
 10
19.5028314888438
 20
-9.37777777777778
 10
18.4037152060001
 20
-9.46666666666667
 10
19.5962847939999
 20
-9.46666666666667
 10
18.3348164645735
 20
-9.55555555555556
 10
19.6651835354265
 20
-9.55555555555556
 10
18.2833548668179
 20
-9.64444444444445
 10
19.7166451331821
 20
-9.64444444444445
 10
18.2457527667344
 20
-9.73333333333333
 10
19.7542472332657
 20
-9.73333333333333
 10
18.2200031655651
 20
-9.82222222222222
 10
19.7799968344349
 20
-9.82222222222222
 10
18.2049536080001
 20
-9.91111111111111
 10
19.7950463919999
 20
-9.91111111111111
 10
18.2
 20
-10
 10
19.8
 20
-10
 10
18.2049536080001
 20
-10.0888888888889
 10
19.7950463919999
 20
-10.0888888888889
 10
18.2200031655651
 20
-10.1777777777778
 10
19.7799968344349
 20
-10.1777777777778
 10
18.2457527667344
 20
-10.2666666666667
 10
19.7542472332657
 20
-10.2666666666667
 10
18.2833548668179
 20
-10.3555555555556
 10
19.7166451331821
 20
-10.3555555555556
 10
18.3348164645735
 20
-10.4444444444444
 10
19.6651835354265
 20
-10.4444444444444
 10
18.4037152060001
 20
-10.5333333333333
 10
19.5962847939999
 20
-10.5333333333333
 10
18.4971685111562
 20
-10.6222222222222
 10
19.5028314888438
 20
-10.6222222222222
 10
18.6335017221673
 20
-10.7111111111111
 10
19.3664982778327
 20
-10.7111111111111
  0
LINE
  5
B5
100
AcDbEntity
  8
HS_Connection_Line
100
AcDbLine
370
-1
  6
HS_Hidden
 10
19
 20
-10
 30
0
 11
27
 21
-10
 31
0
  0
LINE
  5
B6
100
AcDbEntity
  8
HS_Connection_Line
100
AcDbLine
370
-1
 10
19
 20
-31
 30
0
 11
19
 21
-24
 31
0
  0
CIRCLE
  5
B7
100
AcDbEntity
  8
HS_Connection_Line
100
AcDbCircle
370
-1
  6
HS_Solid
 10
19
 20
-24
 30
0
 40
0.8
  0
LWPOLYLINE
  5
B8
100
AcDbEntity
  8
HS_Connection_Line
100
AcDbPolyline
  6
HS_Solid
 38
0
 90
34
 70
0
 10
18.6335017221673
 20
-23.2888888888889
 10
19.3664982778327
 20
-23.2888888888889
 10
18.4971685111562
 20
-23.3777777777778
 10
19.5028314888438
 20
-23.3777777777778
 10
18.4037152060001
 20
-23.4666666666667
 10
19.5962847939999
 20
-23.4666666666667
 10
18.3348164645735
 20
-23.5555555555556
 10
19.6651835354265
 20
-23.5555555555556
 10
18.2833548668179
 20
-23.6444444444444
 10
19.7166451331821
 20
-23.6444444444444
 10
18.2457527667344
 20
-23.7333333333333
 10
19.7542472332657
 20
-23.7333333333333
 10
18.2200031655651
 20
-23.8222222222222
 10
19.7799968344349
 20
-23.8222222222222
 10
18.2049536080001
 20
-23.9111111111111
 10
19.7950463919999
 20
-23.9111111111111
 10
18.2
 20
-24
 10
19.8
 20
-24
 10
18.2049536080001
 20
-24.0888888888889
 10
19.7950463919999
 20
-24.0888888888889
 10
18.2200031655651
 20
-24.1777777777778
 10
19.7799968344349
 20
-24.1777777777778
 10
18.2457527667344
 20
-24.2666666666667
 10
19.7542472332657
 20
-24.2666666666667
 10
18.2833548668179
 20
-24.3555555555556
 10
19.7166451331821
 20
-24.3555555555556
 10
18.3348164645735
 20
-24.4444444444444
 10
19.6651835354265
 20
-24.4444444444444
 10
18.4037152060001
 20
-24.5333333333333
 10
19.5962847939999
 20
-24.5333333333333
 10
18.4971685111562
 20
-24.6222222222222
 10
19.5028314888438
 20
-24.6222222222222
 10
18.6335017221673
 20
-24.7111111111111
 10
19.3664982778327
 20
-24.7111111111111
  0
LINE
  5
B9
100
AcDbEntity
  8
HS_Connection_Line
100
AcDbLine
370
-1
  6
HS_Hidden
 10
19
 20
-24
 30
0
 11
19
 21
-10
 31
0
  0
LINE
  5
BA
100
AcDbEntity
  8
HS_Connection_Line
100
AcDbLine
370
-1
 10
19
 20
-24
 30
0
 11
19
 21
-24
 31
0
  0
CIRCLE
  5
BB
100
AcDbEntity
  8
HS_Connection_Line
100
AcDbCircle
370
-1
  6
HS_Solid
 10
7
 20
-24
 30
0
 40
0.8
  0
LWPOLYLINE
  5
BC
100
AcDbEntity
  8
HS_Connection_Line
100
AcDbPolyline
  6
HS_Solid
 38
0
 90
34
 70
0
 10
6.63350172216732
 20
-23.2888888888889
 10
7.36649827783268
 20
-23.2888888888889
 10
6.49716851115623
 20
-23.3777777777778
 10
7.50283148884377
 20
-23.3777777777778
 10
6.40371520600006
 20
-23.4666666666667
 10
7.59628479399994
 20
-23.4666666666667
 10
6.33481646457352
 20
-23.5555555555556
 10
7.66518353542648
 20
-23.5555555555556
 10
6.28335486681791
 20
-23.6444444444444
 10
7.71664513318209
 20
-23.6444444444444
 10
6.24575276673435
 20
-23.7333333333333
 10
7.75424723326565
 20
-23.7333333333333
 10
6.22000316556514
 20
-23.8222222222222
 10
7.77999683443486
 20
-23.8222222222222
 10
6.20495360800007
 20
-23.9111111111111
 10
7.79504639199993
 20
-23.9111111111111
 10
6.2
 20
-24
 10
7.8
 20
-24
 10
6.20495360800007
 20
-24.0888888888889
 10
7.79504639199993
 20
-24.0888888888889
 10
6.22000316556514
 20
-24.1777777777778
 10
7.77999683443486
 20
-24.1777777777778
 10
6.24575276673435
 20
-24.2666666666667
 10
7.75424723326565
 20
-24.2666666666667
 10
6.28335486681791
 20
-24.3555555555556
 10
7.71664513318209
 20
-24.3555555555556
 10
6.33481646457352
 20
-24.4444444444444
 10
7.66518353542648
 20
-24.4444444444444
 10
6.40371520600006
 20
-24.5333333333333
 10
7.59628479399994
 20
-24.5333333333333
 10
6.49716851115623
 20
-24.6222222222222
 10
7.50283148884377
 20
-24.6222222222222
 10
6.63350172216732
 20
-24.7111111111111
 10
7.36649827783268
 20
-24.7111111111111
  0
LINE
  5
BD
100
AcDbEntity
  8
HS_Connection_Line
100
AcDbLine
370
-1
 10
7
 20
-24
 30
0
 11
7
 21
-31
 31
0
  0
LINE
  5
BE
100
AcDbEntity
  8
HS_Connection_Line
100
AcDbLine
370
-1
  6
HS_Hidden
 10
-4.8
 20
29.7
 30
0
 11
-4.8
 21
-24
 31
0
  0
LINE
  5
BF
100
AcDbEntity
  8
HS_Connection_Line
100
AcDbLine
370
-1
  6
HS_Hidden
 10
-4.8
 20
-24
 30
0
 11
7
 21
-24
 31
0
  0
CIRCLE
  5
C0
100
AcDbEntity
  8
HS_Connection_Line
100
AcDbCircle
370
-1
  6
HS_Solid
 10
19
 20
-24
 30
0
 40
0.8
  0
LWPOLYLINE
  5
C1
100
AcDbEntity
  8
HS_Connection_Line
100
AcDbPolyline
  6
HS_Solid
 38
0
 90
34
 70
0
 10
18.6335017221673
 20
-23.2888888888889
 10
19.3664982778327
 20
-23.2888888888889
 10
18.4971685111562
 20
-23.3777777777778
 10
19.5028314888438
 20
-23.3777777777778
 10
18.4037152060001
 20
-23.4666666666667
 10
19.5962847939999
 20
-23.4666666666667
 10
18.3348164645735
 20
-23.5555555555556
 10
19.6651835354265
 20
-23.5555555555556
 10
18.2833548668179
 20
-23.6444444444444
 10
19.7166451331821
 20
-23.6444444444444
 10
18.2457527667344
 20
-23.7333333333333
 10
19.7542472332657
 20
-23.7333333333333
 10
18.2200031655651
 20
-23.8222222222222
 10
19.7799968344349
 20
-23.8222222222222
 10
18.2049536080001
 20
-23.9111111111111
 10
19.7950463919999
 20
-23.9111111111111
 10
18.2
 20
-24
 10
19.8
 20
-24
 10
18.2049536080001
 20
-24.0888888888889
 10
19.7950463919999
 20
-24.0888888888889
 10
18.2200031655651
 20
-24.1777777777778
 10
19.7799968344349
 20
-24.1777777777778
 10
18.2457527667344
 20
-24.2666666666667
 10
19.7542472332657
 20
-24.2666666666667
 10
18.2833548668179
 20
-24.3555555555556
 10
19.7166451331821
 20
-24.3555555555556
 10
18.3348164645735
 20
-24.4444444444444
 10
19.6651835354265
 20
-24.4444444444444
 10
18.4037152060001
 20
-24.5333333333333
 10
19.5962847939999
 20
-24.5333333333333
 10
18.4971685111562
 20
-24.6222222222222
 10
19.5028314888438
 20
-24.6222222222222
 10
18.6335017221673
 20
-24.7111111111111
 10
19.3664982778327
 20
-24.7111111111111
  0
LINE
  5
C2
100
AcDbEntity
  8
HS_Connection_Line
100
AcDbLine
370
-1
  6
HS_Hidden
 10
19
 20
-24
 30
0
 11
7
 21
-24
 31
0
  0
LINE
  5
C3
100
AcDbEntity
  8
HS_Connection_Line
100
AcDbLine
370
-1
  6
HS_Hidden
 10
19
 20
-24
 30
0
 11
39
 21
-24
 31
0
  0
LINE
  5
C4
100
AcDbEntity
  8
HS_Connection_Line
100
AcDbLine
370
-1
  6
HS_Hidden
 10
39
 20
-24
 30
0
 11
39
 21
-10
 31
0
  0
LINE
  5
C5
100
AcDbEntity
  8
HS_Connection_Line
100
AcDbLine
370
-1
  6
HS_Hidden
 10
39
 20
-10
 30
0
 11
35
 21
-10
 31
0
  0
ARC
  5
C6
100
AcDbEntity
  8
HS_Symbol
100
AcDbCircle
370
-1
 10
22.6666666666667
 20
-18
 30
0
 40
3
100
AcDbArc
 50
138.189684881299
 51
221.810314672857
  0
ARC
  5
C7
100
AcDbEntity
  8
HS_Symbol
100
AcDbCircle
370
-1
 10
15.3333333333333
 20
-17.9999996794498
 30
0
 40
3
100
AcDbArc
 50
318.189680318187
 51
41.8103101097442
  0
CIRCLE
  5
C8
100
AcDbEntity
  8
HS_Connection_Line
100
AcDbCircle
370
-1
  6
HS_Solid
 10
-9
 20
48
 30
0
 40
0.8
  0
LWPOLYLINE
  5
C9
100
AcDbEntity
  8
HS_Connection_Line
100
AcDbPolyline
  6
HS_Solid
 38
0
 90
34
 70
0
 10
-9.36649827783268
 20
48.7111111111111
 10
-8.63350172216732
 20
48.7111111111111
 10
-9.50283148884377
 20
48.6222222222222
 10
-8.49716851115623
 20
48.6222222222222
 10
-9.59628479399994
 20
48.5333333333333
 10
-8.40371520600006
 20
48.5333333333333
 10
-9.66518353542648
 20
48.4444444444445
 10
-8.33481646457352
 20
48.4444444444445
 10
-9.71664513318209
 20
48.3555555555556
 10
-8.28335486681791
 20
48.3555555555556
 10
-9.75424723326565
 20
48.2666666666667
 10
-8.24575276673435
 20
48.2666666666667
 10
-9.77999683443486
 20
48.1777777777778
 10
-8.22000316556514
 20
48.1777777777778
 10
-9.79504639199993
 20
48.0888888888889
 10
-8.20495360800007
 20
48.0888888888889
 10
-9.8
 20
48
 10
-8.2
 20
48
 10
-9.79504639199993
 20
47.9111111111111
 10
-8.20495360800007
 20
47.9111111111111
 10
-9.77999683443486
 20
47.8222222222222
 10
-8.22000316556514
 20
47.8222222222222
 10
-9.75424723326565
 20
47.7333333333333
 10
-8.24575276673435
 20
47.7333333333333
 10
-9.71664513318209
 20
47.6444444444444
 10
-8.28335486681791
 20
47.6444444444444
 10
-9.66518353542648
 20
47.5555555555556
 10
-8.33481646457352
 20
47.5555555555556
 10
-9.59628479399994
 20
47.4666666666667
 10
-8.40371520600006
 20
47.4666666666667
 10
-9.50283148884377
 20
47.3777777777778
 10
-8.49716851115623
 20
47.3777777777778
 10
-9.36649827783268
 20
47.2888888888889
 10
-8.63350172216732
 20
47.2888888888889
  0
LINE
  5
CA
100
AcDbEntity
  8
HS_Connection_Line
100
AcDbLine
370
-1
 10
-9
 20
48
 30
0
 11
-9
 21
40
 31
0
  0
LINE
  5
CB
100
AcDbEntity
  8
HS_Connection_Line
100
AcDbLine
370
-1
 10
-9
 20
48
 30
0
 11
-9
 21
48
 31
0
  0
CIRCLE
  5
CC
100
AcDbEntity
  8
HS_Connection_Line
100
AcDbCircle
370
-1
  6
HS_Solid
 10
-9
 20
48
 30
0
 40
0.8
  0
LWPOLYLINE
  5
CD
100
AcDbEntity
  8
HS_Connection_Line
100
AcDbPolyline
  6
HS_Solid
 38
0
 90
34
 70
0
 10
-9.36649827783268
 20
48.7111111111111
 10
-8.63350172216732
 20
48.7111111111111
 10
-9.50283148884377
 20
48.6222222222222
 10
-8.49716851115623
 20
48.6222222222222
 10
-9.59628479399994
 20
48.5333333333333
 10
-8.40371520600006
 20
48.5333333333333
 10
-9.66518353542648
 20
48.4444444444445
 10
-8.33481646457352
 20
48.4444444444445
 10
-9.71664513318209
 20
48.3555555555556
 10
-8.28335486681791
 20
48.3555555555556
 10
-9.75424723326565
 20
48.2666666666667
 10
-8.24575276673435
 20
48.2666666666667
 10
-9.77999683443486
 20
48.1777777777778
 10
-8.22000316556514
 20
48.1777777777778
 10
-9.79504639199993
 20
48.0888888888889
 10
-8.20495360800007
 20
48.0888888888889
 10
-9.8
 20
48
 10
-8.2
 20
48
 10
-9.79504639199993
 20
47.9111111111111
 10
-8.20495360800007
 20
47.9111111111111
 10
-9.77999683443486
 20
47.8222222222222
 10
-8.22000316556514
 20
47.8222222222222
 10
-9.75424723326565
 20
47.7333333333333
 10
-8.24575276673435
 20
47.7333333333333
 10
-9.71664513318209
 20
47.6444444444444
 10
-8.28335486681791
 20
47.6444444444444
 10
-9.66518353542648
 20
47.5555555555556
 10
-8.33481646457352
 20
47.5555555555556
 10
-9.59628479399994
 20
47.4666666666667
 10
-8.40371520600006
 20
47.4666666666667
 10
-9.50283148884377
 20
47.3777777777778
 10
-8.49716851115623
 20
47.3777777777778
 10
-9.36649827783268
 20
47.2888888888889
 10
-8.63350172216732
 20
47.2888888888889
  0
LINE
  5
CE
100
AcDbEntity
  8
HS_Connection_Line
100
AcDbLine
370
-1
  6
HS_Hidden
 10
-9
 20
48
 30
0
 11
31
 21
48
 31
0
  0
LINE
  5
CF
100
AcDbEntity
  8
HS_Connection_Line
100
AcDbLine
370
-1
  6
HS_Hidden
 10
31
 20
48
 30
0
 11
31
 21
12
 31
0
  0
LINE
  5
D0
100
AcDbEntity
  8
HS_Connection_Line
100
AcDbLine
370
-1
  6
HS_Hidden
 10
-21
 20
10
 30
0
 11
-17
 21
10
 31
0
  0
LINE
  5
D1
100
AcDbEntity
  8
HS_Connection_Line
100
AcDbLine
370
-1
  6
HS_Hidden
 10
-17
 20
10
 30
0
 11
-17
 21
48
 31
0
  0
LINE
  5
D2
100
AcDbEntity
  8
HS_Connection_Line
100
AcDbLine
370
-1
  6
HS_Hidden
 10
-17
 20
48
 30
0
 11
-9
 21
48
 31
0
  0
CIRCLE
  5
D3
100
AcDbEntity
  8
HS_Connection_Line
100
AcDbCircle
370
-1
  6
HS_Solid
 10
31
 20
12
 30
0
 40
0.8
  0
LWPOLYLINE
  5
D4
100
AcDbEntity
  8
HS_Connection_Line
100
AcDbPolyline
  6
HS_Solid
 38
0
 90
34
 70
0
 10
30.6335017221673
 20
12.7111111111111
 10
31.3664982778327
 20
12.7111111111111
 10
30.4971685111562
 20
12.6222222222222
 10
31.5028314888438
 20
12.6222222222222
 10
30.4037152060001
 20
12.5333333333333
 10
31.5962847939999
 20
12.5333333333333
 10
30.3348164645735
 20
12.4444444444444
 10
31.6651835354265
 20
12.4444444444444
 10
30.2833548668179
 20
12.3555555555556
 10
31.7166451331821
 20
12.3555555555556
 10
30.2457527667343
 20
12.2666666666667
 10
31.7542472332657
 20
12.2666666666667
 10
30.2200031655651
 20
12.1777777777778
 10
31.7799968344349
 20
12.1777777777778
 10
30.2049536080001
 20
12.0888888888889
 10
31.7950463919999
 20
12.0888888888889
 10
30.2
 20
12
 10
31.8
 20
12
 10
30.2049536080001
 20
11.9111111111111
 10
31.7950463919999
 20
11.9111111111111
 10
30.2200031655651
 20
11.8222222222222
 10
31.7799968344349
 20
11.8222222222222
 10
30.2457527667343
 20
11.7333333333333
 10
31.7542472332657
 20
11.7333333333333
 10
30.2833548668179
 20
11.6444444444444
 10
31.7166451331821
 20
11.6444444444444
 10
30.3348164645735
 20
11.5555555555556
 10
31.6651835354265
 20
11.5555555555556
 10
30.4037152060001
 20
11.4666666666667
 10
31.5962847939999
 20
11.4666666666667
 10
30.4971685111562
 20
11.3777777777778
 10
31.5028314888438
 20
11.3777777777778
 10
30.6335017221673
 20
11.2888888888889
 10
31.3664982778327
 20
11.2888888888889
  0
LINE
  5
D5
100
AcDbEntity
  8
HS_Connection_Line
100
AcDbLine
370
-1
  6
HS_Hidden
 10
31
 20
12
 30
0
 11
31
 21
4
 31
0
  0
LINE
  5
D6
100
AcDbEntity
  8
HS_Connection_Line
100
AcDbLine
370
-1
  6
HS_Hidden
 10
31
 20
12
 30
0
 11
39
 21
12
 31
0
  0
LINE
  5
D7
100
AcDbEntity
  8
HS_Connection_Line
100
AcDbLine
370
-1
  6
HS_Hidden
 10
39
 20
12
 30
0
 11
39
 21
-6
 31
0
  0
LINE
  5
D8
100
AcDbEntity
  8
HS_Connection_Line
100
AcDbLine
370
-1
  6
HS_Hidden
 10
39
 20
-6
 30
0
 11
35
 21
-6
 31
0
  0
LINE
  5
D9
100
AcDbEntity
  8
HS_IBorder
100
AcDbLine
370
-1
 10
-33
 20
-32
 30
0
 11
-33
 21
56
 31
0
  0
LINE
  5
DA
100
AcDbEntity
  8
HS_IBorder
100
AcDbLine
370
-1
 10
-33
 20
56
 30
0
 11
-10
 21
56
 31
0
  0
LINE
  5
DB
100
AcDbEntity
  8
HS_IBorder
100
AcDbLine
370
-1
 10
-8
 20
56
 30
0
 11
43
 21
56
 31
0
  0
LINE
  5
DC
100
AcDbEntity
  8
HS_IBorder
100
AcDbLine
370
-1
 10
43
 20
-32
 30
0
 11
43
 21
56
 31
0
  0
LINE
  5
DD
100
AcDbEntity
  8
HS_IBorder
100
AcDbLine
370
-1
 10
-33
 20
-32
 30
0
 11
-10
 21
-32
 31
0
  0
LINE
  5
DE
100
AcDbEntity
  8
HS_IBorder
100
AcDbLine
370
-1
 10
-8
 20
-32
 30
0
 11
6
 21
-32
 31
0
  0
LINE
  5
DF
100
AcDbEntity
  8
HS_IBorder
100
AcDbLine
370
-1
 10
8
 20
-32
 30
0
 11
18
 21
-32
 31
0
  0
LINE
  5
E0
100
AcDbEntity
  8
HS_IBorder
100
AcDbLine
370
-1
 10
20
 20
-32
 30
0
 11
43
 21
-32
 31
0
  0
ENDSEC
  0
SECTION
  2
OBJECTS
  0
DICTIONARY
  5
E1
100
AcDbDictionary
  3
ACAD_GROUP
350
E2
  3
ACAD_MATERIAL
350
E3
  3
ACAD_WIPEOUT_VARS
350
E4
  3
ACAD_MLINESTYLE
350
E5
  3
ACAD_LAYOUT
350
E6
  0
DICTIONARY
  5
E2
330
E1
100
AcDbDictionary
  0
DICTIONARY
  5
E3
330
E1
100
AcDbDictionary
  0
WIPEOUTVARIABLES
  5
E4
330
E1
100
AcDbWipeoutVariables
 70
1
  0
DICTIONARY
  5
E5
330
E1
100
AcDbDictionary
  3
STANDARD
350
E7
  0
MLINESTYLE
  5
E7
100
AcDbMlineStyle
  2
STANDARD
 70
0
  3

 62
256
 51
90
 52
90
 71
2
 49
0.5
 62
256
  6
ByLayer
 49
-0.5
 62
256
  6
ByLayer
  0
DICTIONARY
  5
E6
100
AcDbDictionary
281
1
  3
Model
350
13
  0
LAYOUT
  5
13
102
{ACAD_REACTORS
330
E6
102
}
330
E6
100
AcDbPlotSettings
  1

  2
none_device
  4

  6

 40
0
 41
0
 42
0
 43
0
 44
0
 45
0
 46
0
 47
0
 48
0
 49
0
 70
1712
 72
1
 73
0
 74
5
 75
16
 76
0
 77
0
 78
100
140
0
141
0
142
1
143
1
147
1
148
0
149
0
100
AcDbLayout
  1
Model
 70
1
 71
1
 10
-41
 20
-32
 11
43
 21
56
 12
0
 22
0
 32
0
 14
-41
 24
-32
 34
0
 15
43
 25
56
 35
0
146
0
 13
0
 23
0
 33
0
 16
1
 26
0
 36
0
 17
0
 27
1
 37
0
 76
0
330
63
  0
DICTIONARY
  5
E8
100
AcDbDictionary
280
1
  3
XINFO
360
E9
  0
XRECORD
  5
E9
102
{ACAD_REACTORS
330
E8
102
}
330
E8
100
AcDbXrecord
280
0
310
000000007D00E807
311
355E23128A2C5903
  0
ENDSEC
  0
EOF
