999
The file was created in CADSoftTools software
999

  0
SECTION
  2
HEADER
  9
$ACADVER
  1
AC1015
  9
$DWGCODEPAGE
  3
ANSI_1252
  9
$CLAYER
  8
0
  9
$CELTYPE
  6
BYLAYER
  9
$CELTSCALE
 40
1
  9
$CELWEIGHT
370
-1
  9
$DIMALT
 70
0
  9
$DIMALTF
 40
1
  9
$DIMPOST
  1

  9
$DIMAPOST
  1

  9
$DIMSCALE
 40
1
  9
$DIMASZ
 40
0.18
  9
$DIMCLRD
 70
0
  9
$DIMCLRE
 70
0
  9
$DIMCLRT
 70
0
  9
$DIMEXE
 40
0.18
  9
$DIMEXO
 40
0.0625
  9
$DIMGAP
 40
0.0625
  9
$DIMLFAC
 40
1
  9
$DIMDEC
 70
4
  9
$DIMTAD
 70
0
  9
$DIMCEN
 40
0.09
  9
$DIMTIH
 70
1
  9
$DIMTIX
 70
0
  9
$DIMTOH
 70
1
  9
$DIMSE1
 70
0
  9
$DIMSE2
 70
0
  9
$DIMSD1
 70
0
  9
$DIMSD2
 70
0
  9
$DIMLWD
 70
-1
  9
$DIMLWE
 70
-1
  9
$DIMSAH
 70
0
  9
$DIMBLK
  1

  9
$DIMBLK1
  1

  9
$DIMBLK2
  1

  9
$DIMLDRBLK
  1

  9
$DIMSTYLE
  2
STANDARD
  9
$DIMTP
 40
0
  9
$DIMTM
 40
0
  9
$DIMTXT
 40
0.18
  9
$DIMLUNIT
 70
2
  9
$DIMDSEP
 70
46
  9
$DIMTXSTY
  7
STANDARD
  9
$TEXTSIZE
 40
0.18
  9
$TEXTSTYLE
  7
STANDARD
  9
$HANDSEED
  5
00000000000000B9
  9
$FILLETRAD
 40
0.5
  9
$INSUNITS
 70
4
  9
$LIMMIN
 10
-190.125
 20
-22.25
  9
$LIMMAX
 10
21.125
 20
200.25
  9
$FILLMODE
 70
1
  9
$LTSCALE
 40
1
  9
$MEASUREMENT
 70
0
  9
$ATTMODE
 70
1
  9
$PDMODE
 70
0
  9
$PDSIZE
 40
0
  9
$TILEMODE
 70
1
  9
$UCSORG
 10
0
 20
0
 30
0
  9
$UCSXDIR
 10
1
 20
0
 30
0
  9
$UCSYDIR
 10
0
 20
1
 30
0
  9
$INSBASE
 10
0
 20
0
 30
0
  9
$XCLIPFRAME
290
1
  9
$DIMASSOC
280
2
  9
$TDCREATE
 40
2460507.58868003
  9
$TDINDWG
 40
2.43055555555556E-7
  9
$TDUPDATE
 40
2460507.58868028
  0
ENDSEC
  0
SECTION
  2
CLASSES
  0
CLASS
  1
IMAGE
  2
AcDbRasterImage
  3
ISM
 90
2175
280
0
281
1
  0
CLASS
  1
IMAGEDEF
  2
AcDbRasterImageDef
  3
ISM
 90
0
280
0
281
0
  0
CLASS
  1
WIPEOUT
  2
AcDbWipeout
  3
"WipeOut"
 90
2175
280
0
281
1
  0
CLASS
  1
WIPEOUTVARIABLES
  2
AcDbWipeoutVariables
  3
"WipeOut"
 90
0
280
0
281
0
  0
CLASS
  1
MPOLYGON
  2
AcDbMPolygon
  3
"AcMPolygonObj15"
 90
3071
280
0
281
1
  0
ENDSEC
  0
SECTION
  2
TABLES
  0
TABLE
  2
APPID
  5
64
100
AcDbSymbolTable
  0
APPID
  5
65
100
AcDbSymbolTableRecord
100
AcDbRegAppTableRecord
  2
ACAD
 70
0
  0
APPID
  5
12
100
AcDbSymbolTableRecord
100
AcDbRegAppTableRecord
  2
CSTINVENTORY
 70
0
  0
APPID
  5
66
100
AcDbSymbolTableRecord
100
AcDbRegAppTableRecord
  2
AcDbAttr
 70
0
  0
APPID
  5
67
100
AcDbSymbolTableRecord
100
AcDbRegAppTableRecord
  2
PE_URL
 70
0
  0
ENDTAB
  0
TABLE
  2
BLOCK_RECORD
  5
68
100
AcDbSymbolTable
  0
BLOCK_RECORD
  5
63
100
AcDbSymbolTableRecord
100
AcDbBlockTableRecord
  2
*MODEL_SPACE
  0
BLOCK_RECORD
  5
69
100
AcDbSymbolTableRecord
100
AcDbBlockTableRecord
  2
*PAPER_SPACE
  0
BLOCK_RECORD
  5
10
100
AcDbSymbolTableRecord
100
AcDbBlockTableRecord
  2
_CLOSEDFILLED
  0
ENDTAB
  0
TABLE
  2
STYLE
  5
3
100
AcDbSymbolTable
  0
STYLE
  5
A
100
AcDbSymbolTableRecord
100
AcDbTextStyleTableRecord
  2
STANDARD
 70
0
 40
0
 41
1
 50
0
 71
0
 42
2.5
  3
txt
  4

  0
STYLE
  5
2E
100
AcDbSymbolTableRecord
100
AcDbTextStyleTableRecord
  2
HS_Text1
 70
0
 40
0
 41
1
 50
0
 71
0
 42
2.5
  3
arial.ttf
  4

1001
ACAD
1000
Arial
1071
0
  0
STYLE
  5
2F
100
AcDbSymbolTableRecord
100
AcDbTextStyleTableRecord
  2
HS_Text1__BD
 70
0
 40
0
 41
1
 50
0
 71
0
 42
2.5
  3
arialbd.ttf
  4

1001
ACAD
1000
Arial
1071
33554432
  0
STYLE
  5
30
100
AcDbSymbolTableRecord
100
AcDbTextStyleTableRecord
  2
HS_Text1__IT
 70
0
 40
0
 41
1
 50
0
 71
0
 42
2.5
  3
arialbi.ttf
  4

1001
ACAD
1000
Arial
1071
16777216
  0
STYLE
  5
31
100
AcDbSymbolTableRecord
100
AcDbTextStyleTableRecord
  2
HS_Text1__BI
 70
0
 40
0
 41
1
 50
0
 71
0
 42
2.5
  3
arialbi.ttf
  4

1001
ACAD
1000
Arial
1071
50331648
  0
STYLE
  5
32
100
AcDbSymbolTableRecord
100
AcDbTextStyleTableRecord
  2
TextStyle_Attribute
 70
0
 40
0
 41
1
 50
0
 71
0
 42
2.5
  3
arial.ttf
  4

1001
ACAD
1000
Arial
1071
0
  0
STYLE
  5
33
100
AcDbSymbolTableRecord
100
AcDbTextStyleTableRecord
  2
TextStyle_Attribute__BD
 70
0
 40
0
 41
1
 50
0
 71
0
 42
2.5
  3
arialbd.ttf
  4

1001
ACAD
1000
Arial
1071
33554432
  0
STYLE
  5
34
100
AcDbSymbolTableRecord
100
AcDbTextStyleTableRecord
  2
TextStyle_Attribute__IT
 70
0
 40
0
 41
1
 50
0
 71
0
 42
2.5
  3
arialbi.ttf
  4

1001
ACAD
1000
Arial
1071
16777216
  0
STYLE
  5
35
100
AcDbSymbolTableRecord
100
AcDbTextStyleTableRecord
  2
TextStyle_Attribute__BI
 70
0
 40
0
 41
1
 50
0
 71
0
 42
2.5
  3
arialbi.ttf
  4

1001
ACAD
1000
Arial
1071
50331648
  0
STYLE
  5
36
100
AcDbSymbolTableRecord
100
AcDbTextStyleTableRecord
  2
TextStyle_BOM
 70
0
 40
0
 41
1
 50
0
 71
0
 42
2.5
  3
ARIALN.TTF
  4

1001
ACAD
1000
Arial Narrow
1071
0
  0
STYLE
  5
37
100
AcDbSymbolTableRecord
100
AcDbTextStyleTableRecord
  2
TextStyle_BOM__BD
 70
0
 40
0
 41
1
 50
0
 71
0
 42
2.5
  3
ARIALNB.TTF
  4

1001
ACAD
1000
Arial Narrow
1071
33554432
  0
STYLE
  5
38
100
AcDbSymbolTableRecord
100
AcDbTextStyleTableRecord
  2
TextStyle_BOM__IT
 70
0
 40
0
 41
1
 50
0
 71
0
 42
2.5
  3
ARIALNBI.TTF
  4

1001
ACAD
1000
Arial Narrow
1071
16777216
  0
STYLE
  5
39
100
AcDbSymbolTableRecord
100
AcDbTextStyleTableRecord
  2
TextStyle_BOM__BI
 70
0
 40
0
 41
1
 50
0
 71
0
 42
2.5
  3
ARIALNBI.TTF
  4

1001
ACAD
1000
Arial Narrow
1071
50331648
  0
STYLE
  5
3A
100
AcDbSymbolTableRecord
100
AcDbTextStyleTableRecord
  2
TextStyle_ConnectionLineFlow
 70
0
 40
0
 41
1
 50
0
 71
0
 42
2.5
  3
arial.ttf
  4

1001
ACAD
1000
Arial
1071
0
  0
STYLE
  5
3B
100
AcDbSymbolTableRecord
100
AcDbTextStyleTableRecord
  2
TextStyle_ConnectionLineFlow__BD
 70
0
 40
0
 41
1
 50
0
 71
0
 42
2.5
  3
arialbd.ttf
  4

1001
ACAD
1000
Arial
1071
33554432
  0
STYLE
  5
3C
100
AcDbSymbolTableRecord
100
AcDbTextStyleTableRecord
  2
TextStyle_ConnectionLineFlow__IT
 70
0
 40
0
 41
1
 50
0
 71
0
 42
2.5
  3
arialbi.ttf
  4

1001
ACAD
1000
Arial
1071
16777216
  0
STYLE
  5
3D
100
AcDbSymbolTableRecord
100
AcDbTextStyleTableRecord
  2
TextStyle_ConnectionLineFlow__BI
 70
0
 40
0
 41
1
 50
0
 71
0
 42
2.5
  3
arialbi.ttf
  4

1001
ACAD
1000
Arial
1071
50331648
  0
STYLE
  5
3E
100
AcDbSymbolTableRecord
100
AcDbTextStyleTableRecord
  2
TextStyle_ConnectionLineSize
 70
0
 40
0
 41
1
 50
0
 71
0
 42
2.5
  3
arial.ttf
  4

1001
ACAD
1000
Arial
1071
0
  0
STYLE
  5
3F
100
AcDbSymbolTableRecord
100
AcDbTextStyleTableRecord
  2
TextStyle_ConnectionLineSize__BD
 70
0
 40
0
 41
1
 50
0
 71
0
 42
2.5
  3
arialbd.ttf
  4

1001
ACAD
1000
Arial
1071
33554432
  0
STYLE
  5
40
100
AcDbSymbolTableRecord
100
AcDbTextStyleTableRecord
  2
TextStyle_ConnectionLineSize__IT
 70
0
 40
0
 41
1
 50
0
 71
0
 42
2.5
  3
arialbi.ttf
  4

1001
ACAD
1000
Arial
1071
16777216
  0
STYLE
  5
41
100
AcDbSymbolTableRecord
100
AcDbTextStyleTableRecord
  2
TextStyle_ConnectionLineSize__BI
 70
0
 40
0
 41
1
 50
0
 71
0
 42
2.5
  3
arialbi.ttf
  4

1001
ACAD
1000
Arial
1071
50331648
  0
STYLE
  5
42
100
AcDbSymbolTableRecord
100
AcDbTextStyleTableRecord
  2
TextStyle_ConnectionLineVelocity
 70
0
 40
0
 41
1
 50
0
 71
0
 42
2.5
  3
arial.ttf
  4

1001
ACAD
1000
Arial
1071
0
  0
STYLE
  5
43
100
AcDbSymbolTableRecord
100
AcDbTextStyleTableRecord
  2
TextStyle_ConnectionLineVelocity__BD
 70
0
 40
0
 41
1
 50
0
 71
0
 42
2.5
  3
arialbd.ttf
  4

1001
ACAD
1000
Arial
1071
33554432
  0
STYLE
  5
44
100
AcDbSymbolTableRecord
100
AcDbTextStyleTableRecord
  2
TextStyle_ConnectionLineVelocity__IT
 70
0
 40
0
 41
1
 50
0
 71
0
 42
2.5
  3
arialbi.ttf
  4

1001
ACAD
1000
Arial
1071
16777216
  0
STYLE
  5
45
100
AcDbSymbolTableRecord
100
AcDbTextStyleTableRecord
  2
TextStyle_ConnectionLineVelocity__BI
 70
0
 40
0
 41
1
 50
0
 71
0
 42
2.5
  3
arialbi.ttf
  4

1001
ACAD
1000
Arial
1071
50331648
  0
STYLE
  5
46
100
AcDbSymbolTableRecord
100
AcDbTextStyleTableRecord
  2
TextStyle_HoseType
 70
0
 40
0
 41
1
 50
0
 71
0
 42
2.5
  3
arial.ttf
  4

1001
ACAD
1000
Arial
1071
0
  0
STYLE
  5
47
100
AcDbSymbolTableRecord
100
AcDbTextStyleTableRecord
  2
TextStyle_HoseType__BD
 70
0
 40
0
 41
1
 50
0
 71
0
 42
2.5
  3
arialbd.ttf
  4

1001
ACAD
1000
Arial
1071
33554432
  0
STYLE
  5
48
100
AcDbSymbolTableRecord
100
AcDbTextStyleTableRecord
  2
TextStyle_HoseType__IT
 70
0
 40
0
 41
1
 50
0
 71
0
 42
2.5
  3
arialbi.ttf
  4

1001
ACAD
1000
Arial
1071
16777216
  0
STYLE
  5
49
100
AcDbSymbolTableRecord
100
AcDbTextStyleTableRecord
  2
TextStyle_HoseType__BI
 70
0
 40
0
 41
1
 50
0
 71
0
 42
2.5
  3
arialbi.ttf
  4

1001
ACAD
1000
Arial
1071
50331648
  0
STYLE
  5
4A
100
AcDbSymbolTableRecord
100
AcDbTextStyleTableRecord
  2
TextStyle_IPort
 70
0
 40
0
 41
1
 50
0
 71
0
 42
2.5
  3
arial.ttf
  4

1001
ACAD
1000
Arial
1071
0
  0
STYLE
  5
4B
100
AcDbSymbolTableRecord
100
AcDbTextStyleTableRecord
  2
TextStyle_IPort__BD
 70
0
 40
0
 41
1
 50
0
 71
0
 42
2.5
  3
arialbd.ttf
  4

1001
ACAD
1000
Arial
1071
33554432
  0
STYLE
  5
4C
100
AcDbSymbolTableRecord
100
AcDbTextStyleTableRecord
  2
TextStyle_IPort__IT
 70
0
 40
0
 41
1
 50
0
 71
0
 42
2.5
  3
arialbi.ttf
  4

1001
ACAD
1000
Arial
1071
16777216
  0
STYLE
  5
4D
100
AcDbSymbolTableRecord
100
AcDbTextStyleTableRecord
  2
TextStyle_IPort__BI
 70
0
 40
0
 41
1
 50
0
 71
0
 42
2.5
  3
arialbi.ttf
  4

1001
ACAD
1000
Arial
1071
50331648
  0
STYLE
  5
4E
100
AcDbSymbolTableRecord
100
AcDbTextStyleTableRecord
  2
TextStyle_ItemNumber
 70
0
 40
0
 41
1
 50
0
 71
0
 42
2.5
  3
arial.ttf
  4

1001
ACAD
1000
Arial
1071
0
  0
STYLE
  5
4F
100
AcDbSymbolTableRecord
100
AcDbTextStyleTableRecord
  2
TextStyle_ItemNumber__BD
 70
0
 40
0
 41
1
 50
0
 71
0
 42
2.5
  3
arialbd.ttf
  4

1001
ACAD
1000
Arial
1071
33554432
  0
STYLE
  5
50
100
AcDbSymbolTableRecord
100
AcDbTextStyleTableRecord
  2
TextStyle_ItemNumber__IT
 70
0
 40
0
 41
1
 50
0
 71
0
 42
2.5
  3
arialbi.ttf
  4

1001
ACAD
1000
Arial
1071
16777216
  0
STYLE
  5
51
100
AcDbSymbolTableRecord
100
AcDbTextStyleTableRecord
  2
TextStyle_ItemNumber__BI
 70
0
 40
0
 41
1
 50
0
 71
0
 42
2.5
  3
arialbi.ttf
  4

1001
ACAD
1000
Arial
1071
50331648
  0
STYLE
  5
52
100
AcDbSymbolTableRecord
100
AcDbTextStyleTableRecord
  2
TextStyle_Port
 70
0
 40
0
 41
1
 50
0
 71
0
 42
2.5
  3
arial.ttf
  4

1001
ACAD
1000
Arial
1071
0
  0
STYLE
  5
53
100
AcDbSymbolTableRecord
100
AcDbTextStyleTableRecord
  2
TextStyle_Port__BD
 70
0
 40
0
 41
1
 50
0
 71
0
 42
2.5
  3
arialbd.ttf
  4

1001
ACAD
1000
Arial
1071
33554432
  0
STYLE
  5
54
100
AcDbSymbolTableRecord
100
AcDbTextStyleTableRecord
  2
TextStyle_Port__IT
 70
0
 40
0
 41
1
 50
0
 71
0
 42
2.5
  3
arialbi.ttf
  4

1001
ACAD
1000
Arial
1071
16777216
  0
STYLE
  5
55
100
AcDbSymbolTableRecord
100
AcDbTextStyleTableRecord
  2
TextStyle_Port__BI
 70
0
 40
0
 41
1
 50
0
 71
0
 42
2.5
  3
arialbi.ttf
  4

1001
ACAD
1000
Arial
1071
50331648
  0
STYLE
  5
56
100
AcDbSymbolTableRecord
100
AcDbTextStyleTableRecord
  2
TextStyle_Revisions
 70
0
 40
0
 41
1
 50
0
 71
0
 42
2.5
  3
arial.ttf
  4

1001
ACAD
1000
Arial
1071
0
  0
STYLE
  5
57
100
AcDbSymbolTableRecord
100
AcDbTextStyleTableRecord
  2
TextStyle_Revisions__BD
 70
0
 40
0
 41
1
 50
0
 71
0
 42
2.5
  3
arialbd.ttf
  4

1001
ACAD
1000
Arial
1071
33554432
  0
STYLE
  5
58
100
AcDbSymbolTableRecord
100
AcDbTextStyleTableRecord
  2
TextStyle_Revisions__IT
 70
0
 40
0
 41
1
 50
0
 71
0
 42
2.5
  3
arialbi.ttf
  4

1001
ACAD
1000
Arial
1071
16777216
  0
STYLE
  5
59
100
AcDbSymbolTableRecord
100
AcDbTextStyleTableRecord
  2
TextStyle_Revisions__BI
 70
0
 40
0
 41
1
 50
0
 71
0
 42
2.5
  3
arialbi.ttf
  4

1001
ACAD
1000
Arial
1071
50331648
  0
STYLE
  5
5A
100
AcDbSymbolTableRecord
100
AcDbTextStyleTableRecord
  2
TextStyle_RevTriangle
 70
0
 40
0
 41
1
 50
0
 71
0
 42
2.5
  3
arial.ttf
  4

1001
ACAD
1000
Arial
1071
0
  0
STYLE
  5
5B
100
AcDbSymbolTableRecord
100
AcDbTextStyleTableRecord
  2
TextStyle_RevTriangle__BD
 70
0
 40
0
 41
1
 50
0
 71
0
 42
2.5
  3
arialbd.ttf
  4

1001
ACAD
1000
Arial
1071
33554432
  0
STYLE
  5
5C
100
AcDbSymbolTableRecord
100
AcDbTextStyleTableRecord
  2
TextStyle_RevTriangle__IT
 70
0
 40
0
 41
1
 50
0
 71
0
 42
2.5
  3
arialbi.ttf
  4

1001
ACAD
1000
Arial
1071
16777216
  0
STYLE
  5
5D
100
AcDbSymbolTableRecord
100
AcDbTextStyleTableRecord
  2
TextStyle_RevTriangle__BI
 70
0
 40
0
 41
1
 50
0
 71
0
 42
2.5
  3
arialbi.ttf
  4

1001
ACAD
1000
Arial
1071
50331648
  0
STYLE
  5
5E
100
AcDbSymbolTableRecord
100
AcDbTextStyleTableRecord
  2
TextStyle_Text
 70
0
 40
0
 41
1
 50
0
 71
0
 42
2.5
  3
arial.ttf
  4

1001
ACAD
1000
Arial
1071
0
  0
STYLE
  5
5F
100
AcDbSymbolTableRecord
100
AcDbTextStyleTableRecord
  2
TextStyle_Text__BD
 70
0
 40
0
 41
1
 50
0
 71
0
 42
2.5
  3
arialbd.ttf
  4

1001
ACAD
1000
Arial
1071
33554432
  0
STYLE
  5
60
100
AcDbSymbolTableRecord
100
AcDbTextStyleTableRecord
  2
TextStyle_Text__IT
 70
0
 40
0
 41
1
 50
0
 71
0
 42
2.5
  3
arialbi.ttf
  4

1001
ACAD
1000
Arial
1071
16777216
  0
STYLE
  5
61
100
AcDbSymbolTableRecord
100
AcDbTextStyleTableRecord
  2
TextStyle_Text__BI
 70
0
 40
0
 41
1
 50
0
 71
0
 42
2.5
  3
arialbi.ttf
  4

1001
ACAD
1000
Arial
1071
50331648
  0
ENDTAB
  0
TABLE
  2
LTYPE
  5
1
100
AcDbSymbolTable
  0
LTYPE
  5
9
100
AcDbSymbolTableRecord
100
AcDbLinetypeTableRecord
  2
CONTINUOUS
 70
0
  3

 72
65
 73
0
 40
0
  0
LTYPE
  5
7
100
AcDbSymbolTableRecord
100
AcDbLinetypeTableRecord
  2
BYLAYER
 70
0
  3

 72
65
 73
0
 40
0
  0
LTYPE
  5
8
100
AcDbSymbolTableRecord
100
AcDbLinetypeTableRecord
  2
BYBLOCK
 70
0
  3

 72
65
 73
0
 40
0
  0
LTYPE
  5
14
100
AcDbSymbolTableRecord
100
AcDbLinetypeTableRecord
  2
HS_Default
 70
0
  3

 72
65
 73
0
 40
0
  0
LTYPE
  5
15
100
AcDbSymbolTableRecord
100
AcDbLinetypeTableRecord
  2
HS_Solid
 70
0
  3

 72
65
 73
0
 40
0
  0
LTYPE
  5
16
100
AcDbSymbolTableRecord
100
AcDbLinetypeTableRecord
  2
HS_Hidden
 70
0
  3
_ 
 72
65
 73
2
 40
2.3
 49
1.5
 74
0
 49
-0.8
 74
0
  0
LTYPE
  5
17
100
AcDbSymbolTableRecord
100
AcDbLinetypeTableRecord
  2
HS_Dashed
 70
0
  3
_ 
 72
65
 73
2
 40
3.3
 49
2.5
 74
0
 49
-0.8
 74
0
  0
LTYPE
  5
18
100
AcDbSymbolTableRecord
100
AcDbLinetypeTableRecord
  2
HS_Border
 70
0
  3
_ _ 
 72
65
 73
4
 40
10
 49
6.5
 74
0
 49
-1
 74
0
 49
1.5
 74
0
 49
-1
 74
0
  0
ENDTAB
  0
TABLE
  2
LAYER
  5
2
100
AcDbSymbolTable
  0
LAYER
  5
E
100
AcDbSymbolTableRecord
100
AcDbLayerTableRecord
  2
0
 70
0
 62
7
  6
CONTINUOUS
290
1
370
-3
390
0
  0
LAYER
  5
19
100
AcDbSymbolTableRecord
100
AcDbLayerTableRecord
  2
HS_Symbol
 70
0
 62
7
  6
HS_Solid
290
1
370
35
390
0
  0
LAYER
  5
1A
100
AcDbSymbolTableRecord
100
AcDbLayerTableRecord
  2
HS_Solenoid
 70
0
 62
7
  6
HS_Solid
290
1
370
35
390
0
  0
LAYER
  5
1B
100
AcDbSymbolTableRecord
100
AcDbLayerTableRecord
  2
HS_Orifice
 70
0
 62
7
  6
HS_Solid
290
1
370
35
390
0
  0
LAYER
  5
1C
100
AcDbSymbolTableRecord
100
AcDbLayerTableRecord
  2
HS_Line
 70
0
 62
7
  6
HS_Solid
290
1
370
18
390
0
  0
LAYER
  5
1D
100
AcDbSymbolTableRecord
100
AcDbLayerTableRecord
  2
HS_Pilot
 70
0
 62
7
  6
HS_Dashed
290
1
370
18
390
0
  0
LAYER
  5
1E
100
AcDbSymbolTableRecord
100
AcDbLayerTableRecord
  2
HS_Drain
 70
0
 62
7
  6
HS_Hidden
290
1
370
18
390
0
  0
LAYER
  5
1F
100
AcDbSymbolTableRecord
100
AcDbLayerTableRecord
  2
HS_Border
 70
0
 62
7
  6
HS_Border
290
1
370
25
390
0
  0
LAYER
  5
20
100
AcDbSymbolTableRecord
100
AcDbLayerTableRecord
  2
HS_IBorder
 70
0
 62
7
  6
HS_Border
290
1
370
35
390
0
  0
LAYER
  5
21
100
AcDbSymbolTableRecord
100
AcDbLayerTableRecord
  2
HS_Text
 70
0
 62
7
  6
HS_Solid
290
1
390
0
  0
LAYER
  5
22
100
AcDbSymbolTableRecord
100
AcDbLayerTableRecord
  2
HS_Attribute
 70
0
 62
7
  6
HS_Solid
290
1
390
0
  0
LAYER
  5
23
100
AcDbSymbolTableRecord
100
AcDbLayerTableRecord
  2
HS_ItemNumber
 70
0
 62
7
  6
HS_Solid
290
1
390
0
  0
LAYER
  5
24
100
AcDbSymbolTableRecord
100
AcDbLayerTableRecord
  2
HS_Leader
 70
0
 62
7
  6
HS_Solid
290
1
390
0
  0
LAYER
  5
25
100
AcDbSymbolTableRecord
100
AcDbLayerTableRecord
  2
HS_Port
 70
0
 62
7
  6
HS_Solid
290
1
370
35
390
0
  0
LAYER
  5
26
100
AcDbSymbolTableRecord
100
AcDbLayerTableRecord
  2
HS_Connection_Line
 70
0
 62
7
  6
HS_Solid
290
1
370
35
390
0
  0
LAYER
  5
27
100
AcDbSymbolTableRecord
100
AcDbLayerTableRecord
  2
HS_Hose
 70
0
 62
7
  6
HS_Solid
290
1
370
35
390
0
  0
LAYER
  5
28
100
AcDbSymbolTableRecord
100
AcDbLayerTableRecord
  2
HS_Electric
 70
0
 62
7
  6
HS_Solid
290
1
370
35
390
0
  0
LAYER
  5
29
100
AcDbSymbolTableRecord
100
AcDbLayerTableRecord
  2
Pressure
 70
0
 62
30
  6
HS_Solid
290
1
370
20
390
0
  0
LAYER
  5
2A
100
AcDbSymbolTableRecord
100
AcDbLayerTableRecord
  2
Reservoir
 70
0
 62
140
  6
HS_Solid
290
1
370
20
390
0
  0
LAYER
  5
2B
100
AcDbSymbolTableRecord
100
AcDbLayerTableRecord
  2
Control
 70
0
 62
30
  6
HS_Dashed
290
1
370
20
390
0
  0
LAYER
  5
2C
100
AcDbSymbolTableRecord
100
AcDbLayerTableRecord
  2
Drain
 70
0
 62
140
  6
HS_Hidden
290
1
370
20
390
0
  0
LAYER
  5
2D
100
AcDbSymbolTableRecord
100
AcDbLayerTableRecord
  2
Working
 70
0
 62
70
  6
HS_Solid
290
1
370
20
390
0
  0
ENDTAB
  0
TABLE
  2
VPORT
  5
6A
100
AcDbSymbolTable
  0
VPORT
  5
6C
100
AcDbSymbolTableRecord
100
AcDbViewportTableRecord
  2
*ACTIVE
 70
0
 10
0
 20
0
 11
1
 21
1
 12
-84.5
 22
89
 32
0
 13
0
 23
0
 14
1
 24
1
 15
1
 25
1
 16
0
 26
0
 36
1
 17
0
 27
0
 37
0
 40
178
 41
0.949438202247191
 42
50
 43
0
 44
0
 50
0
 51
0
 71
0
 72
100
 73
1
 74
1
 75
0
 76
0
 77
0
 78
0
  0
ENDTAB
  0
TABLE
  2
VIEW
  5
6D
100
AcDbSymbolTable
  0
ENDTAB
  0
TABLE
  2
UCS
  5
6E
100
AcDbSymbolTable
  0
ENDTAB
  0
TABLE
  2
DIMSTYLE
  5
4
100
AcDbSymbolTable
 70
1
100
AcDbDimStyleTable
 71
0
  0
DIMSTYLE
105
B
100
AcDbSymbolTableRecord
100
AcDbDimStyleTableRecord
  2
STANDARD
 70
0
  3

 40
1
 41
0.18
 42
0.0625
 44
0.18
 47
0
 48
0
 73
1
 74
1
 75
0
 76
0
 77
0
140
0.18
141
0.09
144
1
147
0.0625
173
0
174
0
176
0
177
0
178
0
277
2
278
46
281
0
282
0
271
4
340
A
371
-1
372
-1
  0
ENDTAB
  0
ENDSEC
  0
SECTION
  2
BLOCKS
  0
BLOCK
  5
6F
100
AcDbEntity
  8
0
100
AcDbBlockBegin
  2
*MODEL_SPACE
 70
0
 10
0
 20
0
  0
ENDBLK
  5
70
100
AcDbEntity
  8
0
100
AcDbBlockEnd
  0
BLOCK
  5
71
100
AcDbEntity
  8
0
100
AcDbBlockBegin
  2
*PAPER_SPACE
 70
0
 10
0
 20
0
  0
ENDBLK
  5
72
100
AcDbEntity
  8
0
100
AcDbBlockEnd
  0
BLOCK
  5
F
100
AcDbEntity
  8
0
100
AcDbBlockBegin
  2
_CLOSEDFILLED
 70
0
 10
0
 20
0
 30
0
  3
_CLOSEDFILLED
  1

  0
SOLID
  5
C
100
AcDbEntity
  8
0
100
AcDbTrace
370
-2
 62
0
 10
-1
 20
0.166666666666667
 30
0
 11
0
 21
0
 31
0
 12
-1
 22
0.166666666666667
 32
0
 13
-1
 23
-0.166666666666667
 33
0
  0
LINE
  5
D
100
AcDbEntity
  8
0
100
AcDbLine
370
-2
 62
0
 10
-1
 20
0
 30
0
 11
-2
 21
0
 31
0
  0
ENDBLK
  5
73
100
AcDbEntity
  8
0
100
AcDbBlockEnd
  0
ENDSEC
  0
SECTION
  2
ENTITIES
  0
LWPOLYLINE
  5
74
100
AcDbEntity
  8
HS_Symbol
100
AcDbPolyline
370
-1
 38
0
 90
4
 70
1
 10
-156
 20
156
 10
-148
 20
156
 10
-148
 20
164
 10
-156
 20
164
  0
LINE
  5
75
100
AcDbEntity
  8
HS_Symbol
100
AcDbLine
370
-1
 10
-150
 20
164
 30
0
 11
-150.000000262268
 21
158
 31
0
  0
SOLID
  5
76
100
AcDbEntity
  8
HS_Symbol
100
AcDbTrace
370
-1
  6
HS_Solid
 10
-149.464101877406
 20
157.999999976575
 30
0
 11
-150.535898647131
 21
158.000000023425
 31
0
 12
-150.000000349691
 22
156
 32
0
 13
-150.000000349691
 23
156
 33
0
  0
LINE
  5
77
100
AcDbEntity
  8
HS_Pilot
100
AcDbLine
370
-1
 10
-152
 20
156
 30
0
 11
-156
 21
152
 31
0
  0
LINE
  5
78
100
AcDbEntity
  8
HS_Pilot
100
AcDbLine
370
-1
 10
-156
 20
152
 30
0
 11
-160
 21
152
 31
0
  0
LINE
  5
79
100
AcDbEntity
  8
HS_Pilot
100
AcDbLine
370
-1
 10
-160
 20
152
 30
0
 11
-160
 21
158
 31
0
  0
LINE
  5
7A
100
AcDbEntity
  8
HS_Pilot
100
AcDbLine
370
-1
 10
-160
 20
158
 30
0
 11
-156
 21
158
 31
0
  0
LWPOLYLINE
  5
7B
100
AcDbEntity
  8
HS_Symbol
100
AcDbPolyline
370
-1
 38
0
 90
8
 70
0
 10
-156
 20
162
 10
-156.416666666667
 20
164
 10
-157.25
 20
160
 10
-158.083333333333
 20
164
 10
-158.916666666667
 20
160
 10
-159.75
 20
164
 10
-160.583333333333
 20
160
 10
-161
 20
162
  0
LINE
  5
7C
100
AcDbEntity
  8
HS_Symbol
100
AcDbLine
370
-1
 10
-157.7
 20
158.4
 30
0
 11
-159.266139084363
 21
165.447625879632
 31
0
  0
SOLID
  5
7D
100
AcDbEntity
  8
HS_Symbol
100
AcDbTrace
370
-1
  6
HS_Solid
 10
-159.789276153239
 20
165.33137319766
 30
0
 11
-158.743002015487
 21
165.563878561605
 31
0
 12
-159.7
 22
167.4
 32
0
 13
-159.7
 23
167.4
 33
0
  0
LWPOLYLINE
  5
7E
100
AcDbEntity
  8
HS_Symbol
100
AcDbPolyline
370
-1
 38
0
 90
4
 70
1
 10
-148
 20
162
 10
-142
 20
162
 10
-142
 20
158
 10
-148
 20
158
  0
SOLID
  5
7F
100
AcDbEntity
  8
HS_Symbol
100
AcDbTrace
370
-1
  6
HS_Solid
 10
-142
 20
162
 30
0
 11
-145.5
 21
160
 31
0
 12
-142
 22
158
 32
0
 13
-142
 23
158
 33
0
  0
LINE
  5
80
100
AcDbEntity
  8
HS_Pilot
100
AcDbLine
370
-1
 10
-152
 20
164
 30
0
 11
-148
 21
168
 31
0
  0
LINE
  5
81
100
AcDbEntity
  8
HS_Pilot
100
AcDbLine
370
-1
 10
-148
 20
168
 30
0
 11
-144
 21
168
 31
0
  0
LINE
  5
82
100
AcDbEntity
  8
HS_Pilot
100
AcDbLine
370
-1
 10
-144
 20
168
 30
0
 11
-144
 21
163
 31
0
  0
LINE
  5
83
100
AcDbEntity
  8
HS_Pilot
100
AcDbLine
370
-1
 10
-144
 20
163
 30
0
 11
-148
 21
163
 31
0
  0
LINE
  5
84
100
AcDbEntity
  8
HS_IBorder
100
AcDbLine
370
-1
 10
-169
 20
142
 30
0
 11
-169
 21
178
 31
0
  0
LINE
  5
85
100
AcDbEntity
  8
HS_IBorder
100
AcDbLine
370
-1
 10
-169
 20
178
 30
0
 11
-153
 21
178
 31
0
  0
LINE
  5
86
100
AcDbEntity
  8
HS_IBorder
100
AcDbLine
370
-1
 10
-151
 20
178
 30
0
 11
-129
 21
178
 31
0
  0
LINE
  5
87
100
AcDbEntity
  8
HS_IBorder
100
AcDbLine
370
-1
 10
-127
 20
178
 30
0
 11
-123
 21
178
 31
0
  0
LINE
  5
88
100
AcDbEntity
  8
HS_IBorder
100
AcDbLine
370
-1
 10
-123
 20
142
 30
0
 11
-123
 21
178
 31
0
  0
LINE
  5
89
100
AcDbEntity
  8
HS_IBorder
100
AcDbLine
370
-1
 10
-169
 20
142
 30
0
 11
-153
 21
142
 31
0
  0
LINE
  5
8A
100
AcDbEntity
  8
HS_IBorder
100
AcDbLine
370
-1
 10
-151
 20
142
 30
0
 11
-129
 21
142
 31
0
  0
LINE
  5
8B
100
AcDbEntity
  8
HS_IBorder
100
AcDbLine
370
-1
 10
-127
 20
142
 30
0
 11
-123
 21
142
 31
0
  0
TEXT
  5
8C
100
AcDbEntity
  8
HS_Port
100
AcDbText
370
-1
 10
-156.8
 20
180
 30
0
 40
2
  1
C2
 50
0
 41
1
 51
0
  7
TextStyle_IPort
 71
0
 72
0
 11
-156.8
 21
180
 31
0
100
AcDbText
 73
2
  0
CIRCLE
  5
8D
100
AcDbEntity
  8
HS_Symbol
100
AcDbCircle
370
-1
 10
-152
 20
178
 30
0
 40
1
  0
TEXT
  5
8E
100
AcDbEntity
  8
HS_Port
100
AcDbText
370
-1
 10
-126.8
 20
180
 30
0
 40
2
  1
C1
 50
0
 41
1
 51
0
  7
TextStyle_IPort
 71
0
 72
0
 11
-126.8
 21
180
 31
0
100
AcDbText
 73
2
  0
CIRCLE
  5
8F
100
AcDbEntity
  8
HS_Symbol
100
AcDbCircle
370
-1
 10
-128
 20
178
 30
0
 40
1
  0
TEXT
  5
90
100
AcDbEntity
  8
HS_Port
100
AcDbText
370
-1
 10
-156.7
 20
140
 30
0
 40
2
  1
V2
 50
0
 41
1
 51
0
  7
TextStyle_IPort
 71
0
 72
0
 11
-156.7
 21
140
 31
0
100
AcDbText
 73
2
  0
CIRCLE
  5
91
100
AcDbEntity
  8
HS_Symbol
100
AcDbCircle
370
-1
 10
-152
 20
142
 30
0
 40
1
  0
TEXT
  5
92
100
AcDbEntity
  8
HS_Port
100
AcDbText
370
-1
 10
-126.7
 20
140
 30
0
 40
2
  1
V1
 50
0
 41
1
 51
0
  7
TextStyle_IPort
 71
0
 72
0
 11
-126.7
 21
140
 31
0
100
AcDbText
 73
2
  0
CIRCLE
  5
93
100
AcDbEntity
  8
HS_Symbol
100
AcDbCircle
370
-1
 10
-128
 20
142
 30
0
 40
1
  0
LINE
  5
94
100
AcDbEntity
  8
HS_Connection_Line
100
AcDbLine
370
-1
 10
-128
 20
177
 30
0
 11
-128
 21
160
 31
0
  0
LINE
  5
95
100
AcDbEntity
  8
HS_Connection_Line
100
AcDbLine
370
-1
 10
-152
 20
177
 30
0
 11
-152
 21
172
 31
0
  0
LINE
  5
96
100
AcDbEntity
  8
HS_Connection_Line
100
AcDbLine
370
-1
 10
-152
 20
143
 30
0
 11
-152
 21
148
 31
0
  0
CIRCLE
  5
97
100
AcDbEntity
  8
HS_Symbol
100
AcDbCircle
370
-1
 10
-164.000000043711
 20
161
 30
0
 40
1
  0
LINE
  5
98
100
AcDbEntity
  8
HS_Symbol
100
AcDbLine
370
-1
 10
-164.000000105529
 20
159.585786406718
 30
0
 11
-164.000000131134
 21
159
 31
0
  0
LWPOLYLINE
  5
99
100
AcDbEntity
  8
HS_Symbol
100
AcDbPolyline
370
-1
 38
0
 90
3
 70
0
 10
-162.000000018106
 20
161.585786319296
 10
-164.000000105529
 20
159.585786406718
 10
-166.000000018106
 20
161.585786494141
  0
CIRCLE
  5
9A
100
AcDbEntity
  8
HS_Connection_Line
100
AcDbCircle
370
-1
  6
HS_Solid
 10
-152
 20
172
 30
0
 40
0.8
  0
LWPOLYLINE
  5
9B
100
AcDbEntity
  8
HS_Connection_Line
100
AcDbPolyline
  6
HS_Solid
 38
0
 90
34
 70
0
 10
-152.366498277833
 20
172.711111111111
 10
-151.633501722167
 20
172.711111111111
 10
-152.502831488844
 20
172.622222222222
 10
-151.497168511156
 20
172.622222222222
 10
-152.596284794
 20
172.533333333333
 10
-151.403715206
 20
172.533333333333
 10
-152.665183535426
 20
172.444444444444
 10
-151.334816464574
 20
172.444444444444
 10
-152.716645133182
 20
172.355555555556
 10
-151.283354866818
 20
172.355555555556
 10
-152.754247233266
 20
172.266666666667
 10
-151.245752766734
 20
172.266666666667
 10
-152.779996834435
 20
172.177777777778
 10
-151.220003165565
 20
172.177777777778
 10
-152.795046392
 20
172.088888888889
 10
-151.204953608
 20
172.088888888889
 10
-152.8
 20
172
 10
-151.2
 20
172
 10
-152.795046392
 20
171.911111111111
 10
-151.204953608
 20
171.911111111111
 10
-152.779996834435
 20
171.822222222222
 10
-151.220003165565
 20
171.822222222222
 10
-152.754247233266
 20
171.733333333333
 10
-151.245752766734
 20
171.733333333333
 10
-152.716645133182
 20
171.644444444444
 10
-151.283354866818
 20
171.644444444444
 10
-152.665183535426
 20
171.555555555556
 10
-151.334816464574
 20
171.555555555556
 10
-152.596284794
 20
171.466666666667
 10
-151.403715206
 20
171.466666666667
 10
-152.502831488844
 20
171.377777777778
 10
-151.497168511156
 20
171.377777777778
 10
-152.366498277833
 20
171.288888888889
 10
-151.633501722167
 20
171.288888888889
  0
LINE
  5
9C
100
AcDbEntity
  8
HS_Connection_Line
100
AcDbLine
370
-1
 10
-152
 20
172
 30
0
 11
-164
 21
172
 31
0
  0
LINE
  5
9D
100
AcDbEntity
  8
HS_Connection_Line
100
AcDbLine
370
-1
 10
-164
 20
172
 30
0
 11
-164
 21
162
 31
0
  0
LINE
  5
9E
100
AcDbEntity
  8
HS_Connection_Line
100
AcDbLine
370
-1
 10
-152
 20
164
 30
0
 11
-152
 21
172
 31
0
  0
CIRCLE
  5
9F
100
AcDbEntity
  8
HS_Connection_Line
100
AcDbCircle
370
-1
  6
HS_Solid
 10
-152
 20
148
 30
0
 40
0.8
  0
LWPOLYLINE
  5
A0
100
AcDbEntity
  8
HS_Connection_Line
100
AcDbPolyline
  6
HS_Solid
 38
0
 90
34
 70
0
 10
-152.366498277833
 20
148.711111111111
 10
-151.633501722167
 20
148.711111111111
 10
-152.502831488844
 20
148.622222222222
 10
-151.497168511156
 20
148.622222222222
 10
-152.596284794
 20
148.533333333333
 10
-151.403715206
 20
148.533333333333
 10
-152.665183535426
 20
148.444444444444
 10
-151.334816464574
 20
148.444444444444
 10
-152.716645133182
 20
148.355555555556
 10
-151.283354866818
 20
148.355555555556
 10
-152.754247233266
 20
148.266666666667
 10
-151.245752766734
 20
148.266666666667
 10
-152.779996834435
 20
148.177777777778
 10
-151.220003165565
 20
148.177777777778
 10
-152.795046392
 20
148.088888888889
 10
-151.204953608
 20
148.088888888889
 10
-152.8
 20
148
 10
-151.2
 20
148
 10
-152.795046392
 20
147.911111111111
 10
-151.204953608
 20
147.911111111111
 10
-152.779996834435
 20
147.822222222222
 10
-151.220003165565
 20
147.822222222222
 10
-152.754247233266
 20
147.733333333333
 10
-151.245752766734
 20
147.733333333333
 10
-152.716645133182
 20
147.644444444444
 10
-151.283354866818
 20
147.644444444444
 10
-152.665183535426
 20
147.555555555556
 10
-151.334816464574
 20
147.555555555556
 10
-152.596284794
 20
147.466666666667
 10
-151.403715206
 20
147.466666666667
 10
-152.502831488844
 20
147.377777777778
 10
-151.497168511156
 20
147.377777777778
 10
-152.366498277833
 20
147.288888888889
 10
-151.633501722167
 20
147.288888888889
  0
LINE
  5
A1
100
AcDbEntity
  8
HS_Connection_Line
100
AcDbLine
370
-1
 10
-152
 20
148
 30
0
 11
-164
 21
148
 31
0
  0
LINE
  5
A2
100
AcDbEntity
  8
HS_Connection_Line
100
AcDbLine
370
-1
 10
-164
 20
148
 30
0
 11
-164
 21
159
 31
0
  0
LINE
  5
A3
100
AcDbEntity
  8
HS_Connection_Line
100
AcDbLine
370
-1
 10
-152
 20
156
 30
0
 11
-152
 21
148
 31
0
  0
CIRCLE
  5
A4
100
AcDbEntity
  8
HS_Connection_Line
100
AcDbCircle
370
-1
  6
HS_Solid
 10
-128
 20
160
 30
0
 40
0.8
  0
LWPOLYLINE
  5
A5
100
AcDbEntity
  8
HS_Connection_Line
100
AcDbPolyline
  6
HS_Solid
 38
0
 90
34
 70
0
 10
-128.366498277833
 20
160.711111111111
 10
-127.633501722167
 20
160.711111111111
 10
-128.502831488844
 20
160.622222222222
 10
-127.497168511156
 20
160.622222222222
 10
-128.596284794
 20
160.533333333333
 10
-127.403715206
 20
160.533333333333
 10
-128.665183535426
 20
160.444444444444
 10
-127.334816464574
 20
160.444444444444
 10
-128.716645133182
 20
160.355555555556
 10
-127.283354866818
 20
160.355555555556
 10
-128.754247233266
 20
160.266666666667
 10
-127.245752766734
 20
160.266666666667
 10
-128.779996834435
 20
160.177777777778
 10
-127.220003165565
 20
160.177777777778
 10
-128.795046392
 20
160.088888888889
 10
-127.204953608
 20
160.088888888889
 10
-128.8
 20
160
 10
-127.2
 20
160
 10
-128.795046392
 20
159.911111111111
 10
-127.204953608
 20
159.911111111111
 10
-128.779996834435
 20
159.822222222222
 10
-127.220003165565
 20
159.822222222222
 10
-128.754247233266
 20
159.733333333333
 10
-127.245752766734
 20
159.733333333333
 10
-128.716645133182
 20
159.644444444444
 10
-127.283354866818
 20
159.644444444444
 10
-128.665183535426
 20
159.555555555556
 10
-127.334816464574
 20
159.555555555556
 10
-128.596284794
 20
159.466666666667
 10
-127.403715206
 20
159.466666666667
 10
-128.502831488844
 20
159.377777777778
 10
-127.497168511156
 20
159.377777777778
 10
-128.366498277833
 20
159.288888888889
 10
-127.633501722167
 20
159.288888888889
  0
LINE
  5
A6
100
AcDbEntity
  8
HS_Connection_Line
100
AcDbLine
370
-1
 10
-128
 20
160
 30
0
 11
-128
 21
143
 31
0
  0
LINE
  5
A7
100
AcDbEntity
  8
HS_Connection_Line
100
AcDbLine
370
-1
  6
HS_Hidden
 10
-142
 20
160
 30
0
 11
-128
 21
160
 31
0
  0
LINE
  5
A8
100
AcDbEntity
  8
HS_Pilot
100
AcDbLine
370
-1
 10
-152
 20
156
 30
0
 11
-148
 21
152
 31
0
  0
LINE
  5
A9
100
AcDbEntity
  8
HS_Pilot
100
AcDbLine
370
-1
 10
-148
 20
152
 30
0
 11
-144
 21
152
 31
0
  0
LINE
  5
AA
100
AcDbEntity
  8
HS_Pilot
100
AcDbLine
370
-1
 10
-144
 20
152
 30
0
 11
-144
 21
157
 31
0
  0
LINE
  5
AB
100
AcDbEntity
  8
HS_Pilot
100
AcDbLine
370
-1
 10
-144
 20
157
 30
0
 11
-148
 21
157
 31
0
  0
LINE
  5
AC
100
AcDbEntity
  8
HS_Orifice
100
AcDbLine
370
-1
 10
-137.5
 20
160
 30
0
 11
-132.5
 21
160
 31
0
  0
CIRCLE
  5
AD
100
AcDbEntity
  8
HS_Orifice
100
AcDbCircle
370
-1
 10
-135
 20
160
 30
0
 40
2.5
  0
ARC
  5
AE
100
AcDbEntity
  8
HS_Orifice
100
AcDbCircle
370
-1
 10
-135
 20
163.055555555556
 30
0
 40
2.50000000000001
100
AcDbArc
 50
228.189685104221
 51
311.810314895779
  0
ARC
  5
AF
100
AcDbEntity
  8
HS_Orifice
100
AcDbCircle
370
-1
 10
-135
 20
156.944444444444
 30
0
 40
2.50000000000001
100
AcDbArc
 50
48.1896851042215
 51
131.810314895779
  0
ENDSEC
  0
SECTION
  2
OBJECTS
  0
DICTIONARY
  5
B0
100
AcDbDictionary
  3
ACAD_GROUP
350
B1
  3
ACAD_MATERIAL
350
B2
  3
ACAD_WIPEOUT_VARS
350
B3
  3
ACAD_MLINESTYLE
350
B4
  3
ACAD_LAYOUT
350
B5
  0
DICTIONARY
  5
B1
330
B0
100
AcDbDictionary
  0
DICTIONARY
  5
B2
330
B0
100
AcDbDictionary
  0
WIPEOUTVARIABLES
  5
B3
330
B0
100
AcDbWipeoutVariables
 70
1
  0
DICTIONARY
  5
B4
330
B0
100
AcDbDictionary
  3
STANDARD
350
B6
  0
MLINESTYLE
  5
B6
100
AcDbMlineStyle
  2
STANDARD
 70
0
  3

 62
256
 51
90
 52
90
 71
2
 49
0.5
 62
256
  6
ByLayer
 49
-0.5
 62
256
  6
ByLayer
  0
DICTIONARY
  5
B5
100
AcDbDictionary
281
1
  3
Model
350
13
  0
LAYOUT
  5
13
102
{ACAD_REACTORS
330
B5
102
}
330
B5
100
AcDbPlotSettings
  1

  2
none_device
  4

  6

 40
0
 41
0
 42
0
 43
0
 44
0
 45
0
 46
0
 47
0
 48
0
 49
0
 70
1712
 72
1
 73
0
 74
5
 75
16
 76
0
 77
0
 78
100
140
0
141
0
142
1
143
1
147
1
148
0
149
0
100
AcDbLayout
  1
Model
 70
1
 71
1
 10
-169
 20
0
 11
0
 21
178
 12
0
 22
0
 32
0
 14
-169
 24
0
 34
0
 15
0
 25
178
 35
0
146
0
 13
0
 23
0
 33
0
 16
1
 26
0
 36
0
 17
0
 27
1
 37
0
 76
0
330
63
  0
DICTIONARY
  5
B7
100
AcDbDictionary
280
1
  3
XINFO
360
B8
  0
XRECORD
  5
B8
102
{ACAD_REACTORS
330
B7
102
}
330
B7
100
AcDbXrecord
280
0
310
000000007D00E807
311
332CBE5F66BF8DD1
  0
ENDSEC
  0
EOF
